» » »

Born To Be Heiled Tabs (ver.2)

Artists:  A B C D E F G H I J K L M N O P Q R S T U V W X Y Z # 

Born To Be Heiled Tabs (ver.2)

Hanzel Und Gretyl
Rating:
0/5 (0 votes)

Hard to play? Try these video lessons and learn fast.
                                              Hanzel Und Gretyl
                            Born To Be Heiled (2012)
Tuning: Drop D
*=Palm Mute

E--------------------------------------------------|
B--------------------------------------------------|
G--------------------------------------------------|
D-1----0----3----1----6----5-----------------------|
A-1----0----3----1----6----5-----------------------|
D-1----0-00-3----1----6----5-----------------------| Intro
         **

E--------------------------------------------------|
B--------------------------------------------------|
G--------------------------------------------------|
D--------------------------------------------------|
A--------------------------------------------------|
D--00--000--000-00---------------------------------|
   **  ***  *** *

E--------------------------------------------------|
B--------------------------------------------------|
G--------------------------------------------------| (many times)
D-1----0----3----1----6----5-----------------------|
A-1----0----3----1----6----5-----------------------|
D-1----0----3----1----6----5-----------------------| Chorus


E--------------------------------------------------|
B--------------------------------------------------|
G--------------------------------------------------|
D-1----0----3----1----6----5-----------------------|
A-1----0----3----1----6----5-----------------------|
D-1----0-00-3----1----6----5-----------------------|

Verse
Chorus
Silence
Verse
Chorus

Thank you :D
            
Hard to play? Try these video lessons and learn fast. | Correct




comments powered by Disqus
↑ Back to top | Tablatures and chords are parodies/interpretations of the original songs. You may use it for private study, scholarship, research or language learning purposes only