» » »

Bavarian Bierhaus Blood Tabs (ver.1)

Artists:  A B C D E F G H I J K L M N O P Q R S T U V W X Y Z # 

Bavarian Bierhaus Blood Tabs (ver.1)

Hanzel Und Gretyl
Rating:
0/5 (0 votes)

Hard to play? Try these video lessons and learn fast.
                -------------------------------------------------------------------------------
-------------------------------------------------------------------------------

Tuning: Drop C 

e|---------------------------------------------------------------------------|
B|---------------------------------------------------------------------------|
G|---------------------------------------------------------------------------|
D|---------------------------------------------------------------------------|
A|------5----6--------5---6---------------5----6--------5---6----------------|
E|-0---0----0--3-----0---0--3--------0---0----0--3-----0---0--3--------------|
         P.H.  /\/\/   P.H. /\/\/          P.H.  /\/\/  P.H.  /\/\/        
e|---------------------------------------------------------------------------|
B|---------------------------------------------------------------------------|
G|---------------------------------------------------------------------------|  x4
D|---------------------------------------------------------------------------|
A|---------------------------------------------------------------------------|
E|-0-----0--0-----0--0-----0--0-----0--0-----0--0-----0--0----0--3--2--1--0--|
   *     *  *     *  *     *  *     *  *     *  *     *  *    *  *  *  *  *

-Verse-

e|---------------------------------------------------------------------------|
B|---------------------------------------------------------------------------|
G|---------------------------------------------------------------------------|
D|---------------------------------------------------------------------------|
A|---------------------------------------------------------------------------|
E|-8--------7--------6--------5--------9--------8--------7--------6----------|

e|---------------------------------------------------------------------------|
B|---------------------------------------------------------------------------|
G|---------------------------------------------------------------------------|
D|-0--------0--x-----0--------0--x-----0--------0--x-----0--------0--x-------|
A|-0--------0--x-----0--------0--x-----0--------0--x-----0--------0--x-------|
E|-0--------0--x-----0--------0--x-----0--------0--x-----0--------0--x-------|

e|---------------------------------------------------------------------------|
B|---------------------------------------------------------------------------|
G|---------------------------------------------------------------------------|
D|---------------------------------------------------------------------------|
A|---------------------------------------------------------------------------|
E|-8--------7--------6--------5--------9--------8--------7--------6----------|

e|---------------------------------------------------------------------------|
B|---------------------------------------------------------------------------|
G|---------------------------------------------------------------------------|
D|---------------------------------------------------------------------------|
A|------5----6-------5---6-------------5----6-------5---6--------------------|
E|-0---0----0--3----0---0--3------0---0----0--3----0---0--3--0--3--2--1--0---|
               /\/\         /\/\              /\/\        /\ *  *  *  *  *    
-end-

e|---------------------------------------------------------------------------|
B|---------------------------------------------------------------------------|
G|---------------------------------------------------------------------------|  x4
D|---------------------------------------------------------------------------|
A|---------------------------------------------------------------------------|
E|-0-----0--0-----0--0-----0--0-----0--0-----0--0-----0--0----0--3--2--1--0--|
   *     *  *     *  *     *  *     *  *     *  *     *  *    *  *  *  *  *

--Verse (without 4-rd part)--


---No guitar---

e|---------------------------------------------------------------------------|
B|---------------------------------------------------------------------------|
G|---------------------------------------------------------------------------|  x4
D|---------------------------------------------------------------------------|
A|---------------------------------------------------------------------------|
E|-0-----0--0-----0--0-----0--0-----0--0-----0--0-----0--0----0--3--2--1--0--|
   *     *  *     *  *     *  *     *  *     *  *     *  *    *  *  *  *  *

--Verse--

---No guitar---

e|---------------------------------------------------------------------------|
B|---------------------------------------------------------------------------|
G|---------------------------------------------------------------------------|
D|---------------------------------------------------------------------------| x4
A|----------------5------6---------------------------------------------------|
E|-0---0---0---0------0------3-----------------------------------------------|
   *   *   *   *      *      /\/\/      


e|---------------------------------------------------------------------------|\
B|---------------------------------------------------------------------------| |
G|---------------------------------------------------------------------------| |
D|---------------------------------------------------------------------------| |
A|---------------------------------------------------------------------------| |
E|-8--------7--------6--------5--------9--------8--------7--------6----------| |
                                                                               | x3
e|---------------------------------------------------------------------------| |
B|---------------------------------------------------------------------------| | 
G|---------------------------------------------------------------------------| |
D|-0--------0--x-----0--------0--x-----0--------0--x-----0--------0--x-------| |
A|-0--------0--x-----0--------0--x-----0--------0--x-----0--------0--x-------| | 
E|-0--------0--x-----0--------0--x-----0--------0--x-----0--------0--x-------|/


e|---------------------------------------------------------------------------|
B|---------------------------------------------------------------------------|
G|---------------------------------------------------------------------------| x4
D|---------------------------------------------------------------------------|
A|------------5-------6----------------5-------6-----------------------------|
E|-0-------0-------0-------3--------0-------0------3------0---3---2---1---0--|
                           /\/\                    /\/\   *   *   *   *   *    


************************************

| x   Mute note
| *   Palm mute
| P.H. /\/\ Pinch harmonic

************************************
            
Hard to play? Try these video lessons and learn fast. | Correct




comments powered by Disqus
↑ Back to top | Tablatures and chords are parodies/interpretations of the original songs. You may use it for private study, scholarship, research or language learning purposes only