» » »

Hanson, Save Me Tabs (ver.1)

Artists:  A B C D E F G H I J K L M N O P Q R S T U V W X Y Z # 

Save Me Tabs (ver.1)

Hanson Tabs
 Rating:
4/5 (4 votes)
Save Me lessons Tabs too difficult? Try these video lessons and learn fast
1
                Loving youm like I never have before. I´m needing you just to open up 
that door.
e---0--0--0--0--0--0--0--0--0--0--0--0--0--0--0--0--0--0--0--0--0----
B-2--2--2--0--0--0--2--2--2--0--0--0--2--2--2--0--0--0--2--2--2---0--

Begging you, might somehow turn the tides. And tell me to, I've gotta 
get his off my mind. 
e---0--0--0--0--0--0--0--0--0--0--0--0--0--0--0--0--0--0--0--0--0----
B-2--2--2--0--0--0--2--2--2--0--0--0--2--2--2--0--0--0--2--2--2---0--

C#m                    E
I never thought I'd be speaking these words, 
  A                        B
I never thought I'd need to say. 
C#m                  A                 B
Another day alone is more than I can take. 


Chorus:
         C#m   E          A                   B
Won't you save me, 'cause saving is what I need
C#m              E            B
I just want to be by your side
         C#m   E          A                   B
Won't you save me, I don't want to be
C#m              E            B
Just drifting through the sea of life

Won´t you?
e---0---0---0-----
B-2---2---2---0--

Listen please, baby don't walk out that door. I'm down on my knees,
you're all i'm living for. 
e---0--0--0--0--0--0--0--0--0--0--0--0--0--0--0--0--0--0--0--0--0---
B-2--2--2--0--0--0--2--2--2--0--0--0--2--2--2--0--0--0--2--2--2---0-

C#m                    E
I never thought I'd be speaking these words, 
  A                        B
I ever thought I'd find the way. 
C#m                  A                 B
Another day alone is more than I can take. 

**Chorus**

Bridge:

A               E                A                B            C#m
   Suddenly the sky is falling   could it be it's too late for me
           E               A            E
If I never said I'm sorry, then I'm wrong, yes I'm wrong
A                 E               A                  B           C#m
   Then I hear my spirit calling  wondering if she's longing for me 
           E                      B
And then I know that I can't live without her

e---0---0---0---0---0---0---0---0---0-----
B-2---2---2---0---0---0---2---2---2---0---

**Repeat Chorus**

Then comes de Bass solo (only on the 5th String (A))
The ||| means===> a little pause (you´ll get it right away)

A---2/4---2---0--|||---2/4---2---0---

Won't you save me? 
A---2/4---6---7--|||---2/4---6/9---7--

     Won't you save me? 
A---2/4---6---7--|||---2/4---6/9---7---------

     Won't you save me? 
A---2/4---6---7---

A---2/4---6---7---
            
Submit corrections

comments powered by Disqus
↑ Back to top | Hanson Tabs for Save Me. Lyrics for acoustic guitar and electric guitar. 1 Tablatures and chords are parodies/interpretations of the original songs. You may use it for private study, scholarship, research or language learning purposes only