» » »

One More Tabs (ver.1)

Artists:  A B C D E F G H I J K L M N O P Q R S T U V W X Y Z # 

One More Tabs (ver.1)

Hanson
Rating:
0/5 (0 votes)

Hard to play? Try these video lessons and learn fast.
                -------------------------------------------------------------------------------
-------------------------------------------------------------------------------

Standard Tuning

Intro (and recurring interlude):
    D A D G (x2)
e|-------------------------------------------------------------------|
B|-------------------------------------------------------------------|
G|--11-12-11-7-9-(7)--11-12-11-7-7--11-12-11-7-9-(7)--11-12-11-7-7---|
D|--------------------------------------------------------------(7)--|
A|-------------------------------------------------------------------|
E|-------------------------------------------------------------------|

D          A 
I sit here by myself 
D       G
 Just staring into space 
  D         A
I thought I knew you well 
D     G
 Well who can ever say 

D             A
It seems I've spent so long 
D/F#              G
I can't define my right from wrong 

G       A         D
One more for the night 
Em7               G
One more for the pain and 
     A             D
One more, long goodbye 
     Em7              G
And one shot to the brain 
        A                D
And one more takes the knife 
    Em7                 F
And one more takes the train 
          G
Who do I name today 

D          A
A dream of better days 
D     G               
 Has long gone by the way 
D          A
Is there a better place 
D     G
 Well who can ever say 

D             A
It seems I've spent so long 
D/F#              G
I can't define my right from wrong

G       A         D
One more for the night 
Em7               G
One more for the pain and 
     A             D
One more, long goodbye 
     Em7              G
And one shot to the brain 
        A                D
And one more takes the knife 
    Em7                 F
And one more takes the blame 
          G        F
Who do I name today
           G
Who do I blame today


D                        A
Nothing's over 'til it's over 
    D               
And if it's over I don't 
G
Want to hear it 
D                   A
Look into my eyes I told her 
D                    G
Holding onto what is gone won't heal it 


Solo: (D A D G x2)
e|----------------------------------------------------|
B|-------------------------------------------------10-|
G|-----------------------7/9-7-9-7---------7/9-7-9----|
D|-7-9-5-4-4/5-5/7-7/9-9—----------9-7-7-9------------|
A|----------------------------------------------------|
E|----------------------------------------------------|


D             A
It seems I've spent so long 
D/F#              G
I can't define my right from wrong

G       A         D
One more for the night 
Em7               G
One more for the pain and 
     A             D
One more, long goodbye 
     Em7              G
And one shot to the brain 
        A                D
And one more takes the knife 
    Em7                 F
And one more takes the train 
          G     F
Who do I name today
           G 
Who do I blame today

(Intro to end)
            
Hard to play? Try these video lessons and learn fast. | Correct




comments powered by Disqus
↑ Back to top | Tablatures and chords are parodies/interpretations of the original songs. You may use it for private study, scholarship, research or language learning purposes only