>
 >
Mmmbop 2

Mmmbop 2 Guitar Tabs

Hanson - Mmmbop 2 chords, tabs, tablatures, lyrics

Guitar lessons | Add/correct | Request | Top 50 tabs Artists:  A B C D E F G H I J K L M N O P Q R S T U V W X Y Z 0-9

Mmmbop 2 Guitar Tabs – Hanson

CD, Sheet music, Poster

Do you like Mmmbop 2? Share with your friends now
ChordsChords v2Chords v3TabsTabs v2Tabs v3Ukulele
please comment me!
MmmBop – Hanson cover

Intro: 4x
                  D             |             A               |               G          
  |  A             |
E|----------2------------------------0------------------3-------------------------0--------|
B|-------------3------------------------2------------------0-------------------------2-----|
G|----------------2------------------------2------------------0-------------------------2--|
D|-----0-----------------------------------------------------------------------------------|
A|--------------------------------0-------------------------------------------0------------|
E|----------------------------------------------------3------------------------------------|

Verse 1: 2x
                  D             |             A               |               G          
  |             A             |
E|----------2------------------------0------------------3-------------------------0--------|
B|-------------3------------------------2------------------0-------------------------2-----|
G|----------------2------------------------2------------------0-------------------------2--|
D|-----0-----------------------------------------------------------------------------------|
A|--------------------------------0-------------------------------------------0------------|
E|----------------------------------------------------3------------------------------------|

          …so fast…                     …oh yeah…              …and they're gone...
                   D             |              A              |               G         
   |             A             |
E|---------2----2------------------0-------------------3----3-----------------0----0--|
B|---------3----3------------------2-------------------0----0-----------------2----2--|
G|---------2----2------------------2-------------------0----0-----------------2----2--|
D|-----0------------------------------------------------------------------------------|
A|------------------------------------------------------------------------------------|
E|--------------------------------------------------3---------------------------------|

        …so fast…                                                …yeah…
                   D             |              A              |               G         
   |             A             |
E|---------2----2------------------0-------------------3----3-----------------0----0--|
B|---------3----3------------------2-------------------0----0-----------------2----2--|
G|---------2----2------------------2-------------------0----0-----------------2----2--|
D|-----0------------------------------------------------------------------------------|
A|------------------------------------------------------------------------------------|
E|--------------------------------------------------3---------------------------------|

              4x
                 D             |             A               |               G           
 |             A             |
E|----------2------------------------0------------------3-------------------------0--------|
B|-------------3------------------------2------------------0-------------------------2-----|
G|----------------2------------------------2------------------0-------------------------2--|
D|-----0-----------------------------------------------------------------------------------|
A|--------------------------------0-------------------------------------------0------------|
E|----------------------------------------------------3------------------------------------|


Chorus: 4x

                   D             |              A              |               G         
   |             A             |
E|---------2----2------------------0-------------------3----3-----------------0----0--|
B|---------3----3------------------2-------------------0----0-----------------2----2--|
G|---------2----2------------------2-------------------0----0-----------------2----2--|
D|-----0------------------------------------------------------------------------------|
A|------------------------------------------------------------------------------------|
E|--------------------------------------------------3---------------------------------|

Verse 2: 2x

                 D             |             A               |               G           
 |             A             |
E|----------2------------------------0------------------3-------------------------0--------|
B|-------------3------------------------2------------------0-------------------------2-----|
G|----------------2------------------------2------------------0-------------------------2--|
D|-----0-----------------------------------------------------------------------------------|
A|--------------------------------0-------------------------------------------0------------|
E|----------------------------------------------------3------------------------------------|

               4x

                 D             |             A               |               G           
 |             A             |
E|----------2------------------------0------------------3-------------------------0--------|
B|-------------3------------------------2------------------0-------------------------2-----|
G|----------------2------------------------2------------------0-------------------------2--|
D|-----0-----------------------------------------------------------------------------------|
A|--------------------------------0-------------------------------------------0------------|
E|----------------------------------------------------3------------------------------------|

Chorus: 4x

                   D             |              A              |               G         
   |             A             |
E|---------2----2------------------0-------------------3----3-----------------0----0--|
B|---------3----3------------------2-------------------0----0-----------------2----2--|
G|---------2----2------------------2-------------------0----0-----------------2----2--|
D|-----0------------------------------------------------------------------------------|
A|------------------------------------------------------------------------------------|
E|--------------------------------------------------3---------------------------------|

Verse 3:

         …In an mmmbop they're gone…       …In an mmmbop they're not there…
                   D             |              A              |               G         
   |             A             |
E|---------2----2------------------0-------------------3----3-----------------0----0--|
B|---------3----3------------------2-------------------0----0-----------------2----2--|
G|---------2----2------------------2-------------------0----0-----------------2----2--|
D|-----0------------------------------------------------------------------------------|
A|------------------------------------------------------------------------------------|
E|--------------------------------------------------3---------------------------------|


       …In an mmmbop they're gone…              …In an mmmbop they're not…
                   D             |              A              |               G         
   |             A             |
E|---------2----2------------------0-------------------3----3-----------------0----0--|
B|---------3----3------------------2-------------------0----0-----------------2----2--|
G|---------2----2------------------2-------------------0----0-----------------2----2--|
D|-----0------------------------------------------------------------------------------|
A|------------------------------------------------------------------------------------|
E|--------------------------------------------------3---------------------------------|

               …there!                                                 …Until you lose your hair…
                  D             |              A              |               G          
  |             A             |
E|---------2----2------------------0-------------------3----3-----------------0----0--|
B|---------3----3------------------2-------------------0----0-----------------2----2--|
G|---------2----2------------------2-------------------0----0-----------------2----2--|
D|-----0------------------------------------------------------------------------------|
A|------------------------------------------------------------------------------------|
E|--------------------------------------------------3---------------------------------|

        …oh…          …But you don't care…                   …yeah, yeah…
                   D             |              A              |               G         
   |             A             |
E|---------2----2------------------0-------------------3----3-----------------0----0--|
B|---------3----3------------------2-------------------0----0-----------------2----2--|
G|---------2----2------------------2-------------------0----0-----------------2----2--|
D|-----0------------------------------------------------------------------------------|
A|------------------------------------------------------------------------------------|
E|--------------------------------------------------3---------------------------------|

Chorus: 4x

                   D             |              A              |               G         
   |             A             |
E|---------2----2------------------0-------------------3----3-----------------0----0--|
B|---------3----3------------------2-------------------0----0-----------------2----2--|
G|---------2----2------------------2-------------------0----0-----------------2----2--|
D|-----0------------------------------------------------------------------------------|
A|------------------------------------------------------------------------------------|
E|--------------------------------------------------3---------------------------------|

Verse 4: 8x

                   D             |              A              |               G         
   |             A             |
E|---------2----2------------------0-------------------3----3-----------------0----0--|
B|---------3----3------------------2-------------------0----0-----------------2----2--|
G|---------2----2------------------2-------------------0----0-----------------2----2--|
D|-----0------------------------------------------------------------------------------|
A|------------------------------------------------------------------------------------|
E|--------------------------------------------------3---------------------------------|


Chorus: 8x

                   D             |              A              |               G         
   |             A             |
E|---------2----2------------------0-------------------3----3-----------------0----0--|
B|---------3----3------------------2-------------------0----0-----------------2----2--|
G|---------2----2------------------2-------------------0----0-----------------2----2--|
D|-----0------------------------------------------------------------------------------|
A|------------------------------------------------------------------------------------|
E|--------------------------------------------------3---------------------------------|

               4x

                 D             |             A               |               G           
 |             A             |
E|----------2------------------------0------------------3-------------------------0--------|
B|-------------3------------------------2------------------0-------------------------2-----|
G|----------------2------------------------2------------------0-------------------------2--|
D|-----0-----------------------------------------------------------------------------------|
A|--------------------------------0-------------------------------------------0------------|
E|----------------------------------------------------3------------------------------------|





Comments


Popular Hanson tabs & chords
Crazy Beaiutiful Chords
Go 1 Chords
Save Me Chords
Taking My Own Sweet Time Chords
Use Me Up Chords
And I Waited Ukulele
Lullabelle Ukulele
Minute Without You Ukulele
Teach Your Children Ukulele
This Time Around Ukulele


Song lyrics



↑ Back to top | Tablatures and chords are parodies/interpretations of the original songs. You may use it for private study, scholarship, research or language learning purposes only
© 2014 AZChords.com Contact us | Privacy policy | DMCA | Add/correct tabs | Request tabs | Top 50 tabs