>
 >
Lost Without Each Other 2

Lost Without Each Other 2 Guitar Tabs

Hanson - Lost Without Each Other 2 chords, tabs, tablatures, lyrics

Guitar lessons | Add/correct | Request | Top 50 tabs Artists:  A B C D E F G H I J K L M N O P Q R S T U V W X Y Z 0-9

Lost Without Each Other 2 Guitar Tabs – Hanson

CD, Sheet music, Poster

Do you like Lost Without Each Other 2? Share with your friends now
TabsTabs v2Tabs v3
Lost Without Each Other:

Hi! This is my first time publishing a tab, i hope you like it!



EADGBE
BU = Bend Up
RP = Touch in that position
BD = Bend down
VB = Vibrato

Intro: 

This riff is played on top of the intro chords:

E|----------------------------------------------13/7----|
B|-4--5--5--7--4--4--5--------------------------12/6----|
G|-4--4--4--6--4--4--4----------------------------------|     INTRO
D|------------------------------------------------------|    
A|------------------------------------------------------|
E|------------------------------------------------------|

|-----------------------|
|-4--5--5--7--4--4--5---|
|-4--4--4--6--4--4--4---|  REPEAT 2 TIMES
|-----------------------|    
|-----------------------|
|-----------------------|


I ran into your best friend today
Twelve nights since you ran away                          KEYBOARD PLAYING
I asked about you and she said, can't say, can't say
                              

                                               

|----------------------------------------|
|----5---------5----5---2---------2----4-|
|-4---------4----4----2--------2----4----|
|----------------------------------------|    
|----------------------------------------|
|----------------------------------------|
I'm feeling lonely and it seems to stay
It's been a while since I felt that way
|---------------------------------------------|
|----5---------5----5---2---------2------4----|
|-4---------4----4----2--------2---------4----|
|---------------------------------------------|    
|---------------------------------------------|
|---------------------------------------------|
Well, I can tell you there's no room to play this game







|-----------------------------------------|
|-2---4---5-----4--------2------4---------|
|--------------------2-------4------------|
|-----------------------------------------|    
|-----------------------------------------|
|-----------------------------------------|
All I know is what I'm missing
|-----------------------------------------|
|-2---4---5-----4--------2------4---------|
|--------------------2-------4------------|
|-----------------------------------------|    
|-----------------------------------------|
|-----------------------------------------|                      
What I'm missing is your kissing 
Are you listening






|-----------------------|
|-4--5--5--7--4--4--5---|
|-4--4--4--6--4--4--4---|         
|-----------------------|    
|-----------------------|
|-----------------------|
Don't go, don't go telling me you're alright
There's no room for getting uptight
|-----------------------|
|-4--5--5--7--4--4--5---|
|-4--4--4--6--4--4--4---|         
|-----------------------|    
|-----------------------|
|-----------------------|
Don't go saying that you're OK
When you're lonely
|-----------------------|
|-4--5--5--7--4--4--5---|
|-4--4--4--6--4--4--4---|         
|-----------------------|    
|-----------------------|
|-----------------------|
Baby, don't go telling me we're over
When you know you're my one and only lover
|-----------------------|
|-4--5--5--7--4--4--5---|
|-4--4--4--6--4--4--4---|         
|-----------------------|    
|-----------------------|
|-----------------------|
And I won't go saying that we're OK when we're
Lost without each other
|-----------------------|
|-4--5--5--7--4--4--5---|
|-4--4--4--6--4--4--4---|         
|-----------------------|    
|-----------------------|
|-----------------------|
'Cause we're lost without each other
'Cause we're lost without each other






|--------------------------------------|
|-4--5----------5-----5-----2-------4--|
|-4--4--------4---4-4---/-2---/--4-----|       
|--------------------------------------|    
|--------------------------------------|
|--------------------------------------|
I didn't mean to start the last big fight

You never should have hung up that night
|------------------------------|
|-------5-----5-----2-------4--|
|-----4---4-4---/-2---/--4-----|       
|------------------------------|    
|------------------------------|
|------------------------------|
All I want to do is make things right
Make it right

|----------------------------------------|
|----5---------5----5---2---------2----4-|
|-4---------4----4----2--------2----4----|
|----------------------------------------|    
|----------------------------------------|
|----------------------------------------|
                                                  PLAY TWO GUITARS IN THE SAME TIME   
|------------------------------|
|-------5-----5-----2-------4--|
|-----4---4-4---/-2---/--4-----|       
|------------------------------|    
|------------------------------|
|------------------------------|
Listen, with all the choices that we chose to make
And all the promises we chose to break

|----------------------------------------|
|----5---------5----5---2---------2----4-|
|-4---------4----4----2--------2----4----|
|----------------------------------------|    
|----------------------------------------|
|----------------------------------------|
                                                  PLAY TWO GUITARS IN THE SAME TIME   
|------------------------------|
|-------5-----5-----2-------4--|
|-----4---4-4---/-2---/--4-----|       
|------------------------------|    
|------------------------------|
|------------------------------|
We were busy making big mistakes, yesterday





|-----------------------------------------|
|-2---4---5-----4--------2------4---------|
|--------------------2-------4------------|
|-----------------------------------------|    
|-----------------------------------------|
|-----------------------------------------|  
All I know is what I'm missing
|-----------------------------------------|
|-2---4---5-----4--------2------4---------|
|--------------------2-------4------------|
|-----------------------------------------|    
|-----------------------------------------|
|-----------------------------------------|  
What I'm missing is your kissing
Are you listening







|-----------------------|
|-4--5--5--7--4--4--5---|
|-4--4--4--6--4--4--4---|         
|-----------------------|    
|-----------------------|
|-----------------------|
Don't go, don't go telling me you're alright
There's no room for getting uptight
|-----------------------|
|-4--5--5--7--4--4--5---|
|-4--4--4--6--4--4--4---|         
|-----------------------|    
|-----------------------|
|-----------------------|
Don't go saying that you're OK
When you're lonely
|-----------------------|
|-4--5--5--7--4--4--5---|
|-4--4--4--6--4--4--4---|         
|-----------------------|    
|-----------------------|
|-----------------------|
Baby don't go telling me we're over
When you know you're my one and only lover
|-----------------------|
|-4--5--5--7--4--4--5---|
|-4--4--4--6--4--4--4---|         
|-----------------------|    
|-----------------------|
|-----------------------|
And I won't go saying that we're OK when we're
Lost without...



I can tell you one thing
We're not better on our own        
I'm tired of running from my feelings
Are you listening !!!!!


              
     SOLO (its close, but i dont know much about how explain it)

|-------|
|-7-----|
|-9-----|    Play fastly up and down this part (something like tremolo)    
|-------|    
|-------|
|-------|

    BU    RP                   BU    RP                                            
|-----------------------------------------------|
|-----------------------------------------------|
|--11(12)-(12)-11--9------9---11(12)-(12)-11--9-| 
|---------------------11------------------------|
|-----------------------------------------------|
|-----------------------------------------------|

                                  VB
|--------------------------------------|
|--------------------------------------|
|--9--11(12)----9-11(12)-------9--[11]-| 
|--------------------------------------|
|--------------------------------------|
|--------------------------------------|

                         VB
|--------------------------------|
|--------------------------------|
|-9---11---9---13---15---[16]----|
|--------------------------------|     
|--------------------------------|    
|--------------------------------|
|--------------------------------|


|-14----|
|-12----|    Play fastly up and down this part (something like tremolo)    
|-------|    
|-------|
|-------|
|-------|

   BU RP                                                  VB
|-15(16)(16)(16)---12----------15(16)(16)(16)---12----------12-----|
|--------12--12--------15--12---------12--12--------15--12---------|     
|------------------------------------------------------------------|    
|------------------------------------------------------------------|
|------------------------------------------------------------------|
|------------------------------------------------------------------|

 END OF SOLO




|-----------------------------------------|
|-2---4---5-----4--------2------4---------|
|--------------------2-------4------------|
|-----------------------------------------|    
|-----------------------------------------|
|-----------------------------------------|
All I know is what I'm missing
|-----------------------------------------|
|-2---4---5-----4--------2------4---------|
|--------------------2-------4------------|
|-----------------------------------------|    
|-----------------------------------------|
|-----------------------------------------|                      
What I'm missing is your kissing
Are you listening







|-----------------------|
|-4--5--5--7--4--4--5---|
|-4--4--4--6--4--4--4---|         
|-----------------------|    
|-----------------------|
|-----------------------|
Don't go, don't go telling me you're alright
There's no room for getting uptight
|-----------------------|
|-4--5--5--7--4--4--5---|
|-4--4--4--6--4--4--4---|         
|-----------------------|    
|-----------------------|
|-----------------------|
Don't go saying that you're OK
When you're lonely
|-----------------------|
|-4--5--5--7--4--4--5---|
|-4--4--4--6--4--4--4---|         
|-----------------------|    
|-----------------------|
|-----------------------|
Baby, don't go telling me we're over
When you know you're my one and only lover
|-----------------------|
|-4--5--5--7--4--4--5---|
|-4--4--4--6--4--4--4---|         
|-----------------------|    
|-----------------------|
|-----------------------|
And I won't go saying that we're OK when we're
Lost without each other
|-----------------------|
|-4--5--5--7--4--4--5---|
|-4--4--4--6--4--4--4---|         
|-----------------------|    
|-----------------------|
|-----------------------|
'Cause we're lost without each other
'Cause we're lost without each other (repeat to fade..)

   BU                      BU    BU                         
|-15(16)15---12----------12(13)12(13)---12-|
|----------------15---------------------15-|   
|------------------------------------------|   
|------------------------------------------|
|------------------------------------------|
|------------------------------------------|



I hope you like it! I tabbed this by ear, and i think sound pretty closer to the original song.

Atte.
Wildcrue





Comments


Popular Hanson tabs & chords
The Walk Chords
Lucy  Tabs
Madeline  Tabs
Cant Stop Ukulele
Christmas Ukulele
Lullabelle Ukulele
Sometimes Ukulele
Taking My Own Sweet Time Ukulele
Watch Over Me Ukulele
When Youre Gone 2 Ukulele


Song lyrics



↑ Back to top | Tablatures and chords are parodies/interpretations of the original songs. You may use it for private study, scholarship, research or language learning purposes only
© 2014 AZChords.com Contact us | Privacy policy | DMCA | Add/correct tabs | Request tabs | Top 50 tabs