» » »

Hanson, Give A Little Tabs (ver.1)

Artists:  A B C D E F G H I J K L M N O P Q R S T U V W X Y Z # 

Give A Little Tabs (ver.1)

Hanson Tabs
 Rating:
3.7/5 (6 votes)
Give A Little lessons Tabs too difficult? Try these video lessons and learn fast
1
                Intro and Verse 1 (8 timee)

E---------------------------------------------------|
B---------------------------------------------------|
G---------------------------------------------------|
D------------------------------------------------10-|
A-----------7--8--7--8--7-8-7-8-8-10--10--10--12----|
E---8--7--8-----------------------------------------|

Prechorus:

Hold F for 2 measures

E-----
B-----
G-----
D--3--
A--3--
E--1--

Chorus 1 (3 times)

   C    C    C      F  F   F   F    F   F   F    G   G   G   G
E--8----8----8---|----------------|------------|----------------|
B--8----8----8---|-10--10--10--10-|-10--10--10-|-12--12--12--12-|
G--9----9----9---|-10--10--10--10-|-10--10--10-|-12--12--12--12-|
D--10---10---10--|-10--10--10--10-|-10--10--10-|-12--12--12--12-|
A--10---10---10--|--8---8---8---8-|--8---8---8-|-10--10--10--10-|
E--8----8----8---|--x---x---x---x-|--x---x---x-|--x---x---x---x-|

Chorus outro (1 time)

   C    C    C      F  F   F   F    D   D   D    G   G   G   G
E--8----8----8---|----------------|-10--10--10-|----------------|
B--8----8----8---|-10--10--10--10-|-10--10--10-|-12--12--12--12-|
G--9----9----9---|-10--10--10--10-|-11--11--11-|-12--12--12--12-|
D--10---10---10--|-10--10--10--10-|-12--12--12-|-12--12--12--12-|
A--10---10---10--|--8---8---8---8-|-12--12--12-|-10--10--10--10-|
E--8----8----8---|--x---x---x---x-|-10--10--10-|--x---x---x---x-|

Verse 2 Modulates up 1 whole step

E---------------------------------------------------------|
B---------------------------------------------------------|
G---------------------------------------------------------|
D------------------------------------------------------12-|
A-------------9--10--9--10--9-10-9-10-10-12--12--12--14---|
E--10--9--10----------------------------------------------|

Prechorus:

Hold G for 2 measures

E--3--
B--3--
G--4--
D--5--
A--5--
E--3--

Chorus 2 is up 1 whole step from Chorus 1

D D D \ G G G G \ G G G \ A A A A (3x)

D D D \ G G G G \ E E E \ A A A A (1x)

3rd Chorus is up 1 whole step from Chorus 2

Strumming the Chorus:
Mute with left hand. (x) = Mute

It's really fast. Listen to recording to perfect rhythm.

C
Down (x) Up Down

F
Up (x) Up (x) Up Down

F
Down (x) Up Down
G
Up (x) Up (x) Up Down

1 and a 2 and a 3 e and a 4 e and a 1 and a 2 and a 3 e and a 4 e and a
            
Submit corrections

comments powered by Disqus
↑ Back to top | Hanson Tabs for Give A Little. Lyrics for acoustic guitar and electric guitar. 1 Tablatures and chords are parodies/interpretations of the original songs. You may use it for private study, scholarship, research or language learning purposes only