>
 >
Being Me

Being Me Guitar Tabs

Hanson - Being Me chords, tabs, tablatures, lyrics

Guitar lessons | Add/correct | Request | Top 50 tabs Artists:  A B C D E F G H I J K L M N O P Q R S T U V W X Y Z 0-9

Being Me Guitar Tabs – Hanson

CD, Sheet music, Poster

Do you like Being Me? Share with your friends now
Tabs
Hanson - Being Me

G9: 320020
E7: 022010


Intro

E------0-----------0---------0-----------0-----------0-----------0----|
B---------1-----------1---------1-----------1-----------1-----------1-|
G---------------------------------------------------------------------|
D---------------------------------------------------------------------|
A---3--------3--2------2--0--------0----------------------------------|
E-------------------------------------3--------3--1--------1--3-------|

C                      G9
I watched you walk down the steps to the door
C                 G9
Grab your keys and drive away
C                   G9
Guess I can't worry about who's right anymore
F     G                  C
cause there's no one left to blame


Riff 1 acompanhando as notas
Refrao
C                       G
So what I am supposed to do
Am               F
Here I am losing you
F            G                  C
And this is more than I can take
F               G           C   C1    C2      F
And as you walk away, baby, all that I can say
F               G        C
Is I'm sorry for being me

C              G9             C     C
I don't have to look into your eyes anymore
C            G9                        C
It's alright, they don't look at me the same
C              G9              C
With all that I've lost, I'd give everything and more
F        g                  C
If you'd want my love today

Refrao
So what am I supposed to do
Here I am losing you
And this is more than I can take
And as you walk away, baby, all that I can say
Is I'm sorry for being me
Yes, I'm sorry for being me

Am                                               F
And I give and I give and I give when I feel like breaking
Am                                                 F
I can feel it in your kiss what I give doesn't mean that much
Am                                                F
And I know in my heart that there is no way you're staying
Riff 2
Still I close my eyes and dream

Refrao
So what am I supposed to do
When I know I'm losing you
And I've said all that I can say
And as you walk away, baby, all that I can say
Is I'm sorry for being me

Riff1

e----------0----------------2--------------1---------------1-------------------|
B--------1---1------------2---2----------2---2-----------1---1-----------------|
G------0-------0--------0-------0------2-------2-------2-------2---------------|
D------------------------------------------------------------------------------|
A---3------------3-------------------0-----------0-----------------------------|
E--------------------3------------3-----------------1------------1-------------|
         C                  G              Am              F

e----------1----------------2-----------------0--1---0-------------------------|
B--------1---1------------2---2-------------1----1---1-------------------------|
G------2-------2--------0-------0---------0------------------------------------|
D------------------------------------------------------------------------------|
A----3---------------------------------3---------------------------------------|
E--1---------------1---3------------3------------------------------------------|
         F                  G             C

e----------1------------------2-----------------------------------1---------|
B--------1---1--------------2---2-------------1---------1---------1---------|
G------2-------2----------0-------0---------0---------0-----------2---------|
D-----------------------------------------------------------------3---------|
A----3-----------------------------------3-------3-2-------2-0----3---------|
E--1---------------1---3--------------3---------------------------1---------|
        F                   G            C        C1        C2    F

e----------1----------------2----------0----1---0---------------------------|
B--------1---1------------2---2--------1----1---1---------------------------|
G------2-------2--------0-------0------0------------------------------------|
D---------------------------------------------------------------------------|
A----3---------------------------------3------------------------------------|
E--1---------------1---3----------------------------------------------------|
       F                   G           C


Riff 2
e------------------------------------------1-----|
B---------1--------1---------1-------------1-----|
G-------0--------0---------0---------------2-----|
D------------------------------------------3-----|
A----3-------3-2-------2-0-----------------3-----|
E------------------------------------------1-----|

Riff do Final
e------0-----------0---------0-----------0-----------0-------3-----0-----|
B---------1-----------1---------1-----------1-----------1----3-----1-----|
G------------------------------------------------------------0-----0-----|
D------------------------------------------------------------0-----2-----|
A---3--------3--2------2--0--------0-------------------------2-----3-----|
E-------------------------------------3--------3--1----------3-----0-----|


Obs: If you find some mistakes please mail me





Comments


Popular Hanson tabs & chords
Man From Milwaukee 1 Bass Tabs
A Song To Sing 2 Chords
Can't Stop Chords
Crazy Beautiful Chords
River 1 Chords
Lost Without Each Other 1 Tabs
Sometimes Tabs
Everyone Knows The Claus Ukulele
Georgia Ukulele
Go Ukulele


Song lyrics



↑ Back to top | Tablatures and chords are parodies/interpretations of the original songs. You may use it for private study, scholarship, research or language learning purposes only
© 2014 AZChords.com Contact us | Privacy policy | DMCA | Add/correct tabs | Request tabs | Top 50 tabs