>
 >
Million Miles Away

Million Miles Away Guitar Tabs

Hanoi Rocks - Million Miles Away chords, tabs, tablatures, lyrics

Guitar lessons | Add/correct | Request | Top 50 tabs Artists:  A B C D E F G H I J K L M N O P Q R S T U V W X Y Z 0-9

Million Miles Away Guitar Tabs – Hanoi Rocks

CD, Sheet music, Poster

Do you like Million Miles Away? Share with your friends now
Tabs
|----------------------------------------------------------------|
|-3^10--11-10-11h13-11-10--8h10-8---8---8-10-10^11-10-8-6h8r6-5-6|
|------------------------------- 10------------------------------|
|----------------------------------------------------------------|
|----------------------------------------------------------------|
|----------------------------------------------------------------|


|------------------------- 8h11-------|---------------------------|
|-6-8-8^11-8-5----------10-----10-----|---------------------------|
|-------------5----------------------#|---------------------------|
|--------------7---------------------#|-------------3---0_____----|
|-------------------------------------|-------0-3-2--3------------|
|-------------------------------------|---------------------------|

Dm                      F                      C
  Took too much of this, had too much of that, but with you I
Bb              Bb/A  Bb/G  F F/E  Dm                          F
never got enough                      I thought that never be love
                     C                           Bb
in my life and that sad cos' when I think what I couldn' have, it
          C   Bb  A
makes me feel so bad
|---------------------------|
|---------------------------|
|---------------------------|
|-------------3---0_____----|
|-------0-3-2--3------------|
|---------------------------|

Dm                     F                      C
   Smoked a lot of sky, drinked a lot of rain, anything to
Bb              Bb/A  Bb/G  F F/E  Dm                       F
ease my pain         		      And now your touch is all it
         		   C		   Bb              Bb/A  Bb
would taken and it's a shame, cos' I  can never come home again
Chorus:
C  D  Em 	        D            C           B(=H)
         And you're a million miles away, I can never got  a chance
    Em              D                       C
to hold you, so my message is the wind I'm play that it was true
     B Bsus B
to you

[Sax solo]

Dm		   F          C                      Bb/A  Bb/G
Loving you was so easy, and leaving you is so very hard
 F F/E  Dm   				F                  Bb
           And now I'm living in this ocean of blue, in the corner of
     Bb/A  Bb/G                 F
the prison yard, I should have listened to you

Chorus:
C  D  Em 	        D            C           B
         Now you're a million miles away, I can never got  a chance
    Em              D                       C    D
to hold you
[Drum solo]
     Gm   Dm   Gm  Dm   Gm  Dm   Bb    C
[Guitar solo]

Dm  C                Bb           A
Ple-eease, don't be thinkin' of me
Dm  C                Bb           A
Ple-eease, don't be thinkin' of me
Dm  C                Bb           A
Ple-eease, don't be thinkin' of me
Dm  C                Bb       A
Ple-eease, just forget about me
|---------------------------|
|---------------------------|
|---------------------------|
|-------------3---0_____----|
|-------0-3-2--3------------|
|---------------------------|





Comments


Popular Hanoi Rocks tabs & chords
Fashion Chords
New York City Chords
11th Street Kids Intro Tabs
Boulevard Of Broken Dreams Intro Tabs
I Want You Tabs
11th Street Kids Ukulele
Boulevard Of Broken Dreams Ukulele
Dead By Xmas Ukulele
Malibu Beach Nightmare Ukulele
New York City Ukulele


Song lyrics



↑ Back to top | Tablatures and chords are parodies/interpretations of the original songs. You may use it for private study, scholarship, research or language learning purposes only
© 2014 AZChords.com Contact us | Privacy policy | DMCA | Add/correct tabs | Request tabs | Top 50 tabs