» » »

Hannah Montana, Let's Do This Tabs (ver.1)

Artists:  A B C D E F G H I J K L M N O P Q R S T U V W X Y Z # 

Let's Do This Tabs (ver.1)

Hannah Montana Tabs
Rating:
0/5 (0 votes)
Hard to play? Try these video lessons and learn fast.
                Hannah Montana
Lets do this
Hannah Montana 3

Intro

|--------------------|  |--------------------|
|--------------------|  |--------------------|
|--9--6--7--7--6-----|  |-----6--7--7--6--9--|
|--9--6--7--7--6--7--|  |--7--6--7--7--6--9--|
|--7--4--5--5--4--7--|  |--7--4--5--5--4--7--|
|-----------------5--|  |--5-----------------|

Listen for timing throughout the song.

Verse

|--------------|    |--------------|    |--------------|
|--------------|    |--------------|    |--------------|
|--7--7--9--9--|    |--7--7--------|    |--------9--9--|
|--7--7--9--9--| x2 |--7--7--7--7--|    |--7--7--9--9--|
|--5--5--7--7--|    |--5--5--7--7--|    |--7--7--7--7--|
|--------------|    |--------5--5--|    |--5--5--------|

Pre-chorus

|--------------------------|
|--------------------------|
|--9--9--------------7--7--|
|--9--9--9--9--9--9--7--7--|
|--7--7--9--9--9--9--5--5--|
|--------7--7--7--7--------|
                       P.M ----------

Chorus

|--------------------|    |--------------|
|--------------------|    |--------------|
|--9--9--7--7--------|    |--------7--7--|
|--9--9--7--7--7--7--| x3 |--9--9--7--7--|
|--7--7--5--5--7--7--|    |--9--9--5--5--|
|--------------5--5--|    |--7--7--------|


Intro

|--------------------|  |--------------------|
|--------------------|  |--------------------|
|--9--6--7--7--6-----|  |-----6--7--7--6--9--|
|--9--6--7--7--6--7--|  |--7--6--7--7--6--9--|
|--7--4--5--5--4--7--|  |--7--4--5--5--4--7--|
|-----------------5--|  |--5-----------------|

Verse

|--------------|    |--------------|    |--------------|
|--------------|    |--------------|    |--------------|
|--7--7--9--9--|    |--7--7--------|    |--------9--9--|
|--7--7--9--9--| x2 |--7--7--7--7--|    |--7--7--9--9--|
|--5--5--7--7--|    |--5--5--7--7--|    |--7--7--7--7--|
|--------------|    |--------5--5--|    |--5--5--------|

Chorus

|--------------------|    |--------------|
|--9--9--7--7--------|    |--------7--7--|
|--9--9--7--7--7--7--| x3 |--9--9--7--7--|
|--7--7--5--5--7--7--|    |--9--9--5--5--|
|--------------5--5--|    |--7--7--------|

Intro

|--------------------|  |--------------------|
|--------------------|  |--------------------|
|--9--6--7--7--6-----|  |-----6--7--7--6--9--|
|--9--6--7--7--6--7--|  |--7--6--7--7--6--9--|
|--7--4--5--5--4--7--|  |--7--4--5--5--4--7--|
|-----------------5--|  |--5-----------------|

Bridge

|---------------------------|    |-----------|
|---------------------------|    |-----------|
|---------------------------|    |--11---14--|
|----3--5--x8-----5--7--x8--|    |--9----12--|
|--3-----------5------------|    |-----------|
|---------------------------|    |-----------|

|--------------|    |-----|
|--------------|    |-----|
|--9~--7~------|    |-----|
|--9~--7~--7~--| x2 |--7--|
|--7~--5~--7~--|    |--7--|
|----------5~--|    |--5--|
                    P.M----


|-----------------|
|-----------------|
|--9--7--------7--|
|--9--7--7--9--7--|
|--7--5--7--9--5--|
|--------5--7-----|

Outro

|--------------------|  |--------------------|  |--------------|
|--------------------|  |--------------------|  |--------------|
|--9--6--7--7--6-----|  |-----6--7--7--6--9--|  |--7--7--9--9--|
|--9--6--7--7--6--7--|  |--7--6--7--7--6--9--|  |--7--7--9--9--|
|--7--4--5--5--4--7--|  |--7--4--5--5--4--7--|  |--5--5--7--7--|
|-----------------5--|  |--5-----------------|  |--------------|
            

comments powered by Disqus
↑ Back to top | Hannah Montana Tabs for Let's Do This. Lyrics for acoustic guitar and electric guitar. Tablatures and chords are parodies/interpretations of the original songs. You may use it for private study, scholarship, research or language learning purposes only