» » »

If We Were A Movie Tabs (ver.2)

Artists:  A B C D E F G H I J K L M N O P Q R S T U V W X Y Z # 

If We Were A Movie Tabs (ver.2)

Hannah Montana
Rating:
5/5 (4 votes)

Hard to play? Try these video lessons and learn fast.
                Hannah Montana
If We Were a Movie

Listen to song for strumming pattern.

Intro:
e|x-----x-----x-----x-----x-----x-----x-----|
B|x-----x-----x-----x-----x-----x-----x-----|
G|9-----6-----x-----4-----x-----6-----x-----|
D|9-----6-----7-----4-----6-----4-----6-----|
A|7-----4-----7-----2-----6-----4-----6-----|
E|x-----x-----5-----x-----4-----x-----5-----|

Verse:
(Palm Mute, Repeat As Needed)
e|x-----x-----x--|
B|x-----x-----x--|
G|6-----4-----x--|
D|6-----4-----7--|
A|4-----2-----7--|
E|x-----x-----5--|

Chorus
(Repeat As Needed)
e|x-----x-----x-----x-----x-----x-----x----x-|
B|x-----x-----x-----x-----x-----x-----x----x-|
G|9-----6-----x-----4-----x-----6-----x----x-|
D|9-----6-----7-----4-----6-----4-----6----9-|
A|7-----4-----7-----2-----6-----4-----6----9-|
E|x-----x-----5-----x-----4-----x-----5----7-|
            
Hard to play? Try these video lessons and learn fast. | Correct




comments powered by Disqus
↑ Back to top | Tablatures and chords are parodies/interpretations of the original songs. You may use it for private study, scholarship, research or language learning purposes only