» » »

Hank Williams, Red White And Pink Slip Blues Tabs (ver.1)

Artists:  A B C D E F G H I J K L M N O P Q R S T U V W X Y Z # 

Red White And Pink Slip Blues Tabs (ver.1)

Hank Williams Tabs
 Rating:
4/5 (4 votes)
Red White And Pink Slip Blues lessons Tabs too difficult? Try these video lessons and learn fast
                This is my first tab, so sorry if it's a bit messy, but I am pretty sure I worked it out right...

                    
INTRO

e |-------------------------------------------------------------------------|
b |-------------------------------------------------------------------------|
g |-------------------------------------------------------------------------|
d |-------------------------------------------------------------------------|
a |----------------------------------------------------------------------0--|
e |-------------------------------------------------------------------0h3---|


       Am                                         F                             Am    F
e |-------------------------------------------------------------------------|
b |-----0h1-0h1---0h1p0----0---0----0----------0h1-0h1--0h1p0------0---0----|
g |-----2---2-----2--------1h2-1h2--1h2p1------2---2----2----------1h2-1h2--|
d |-----2---2-----2--------3---3----3----------2---2----2----------3---3----|
a |-0-0---------000------------------------0-0--------000-------------------|
e |--------------------1-1--------111--------------------------1-1--------1~|


VERSE

        Am                                         F                                Am     F
e |-------------------------------------------------------------------------|
b |----0h1-0h1---0h1p0--0---0-----0--------0h1-0h1---0h1p0---0---0-----0----|
g |----2---2-----2------1h2-1h2---1h2p1----2---2-----2-------1h2-1h2---1h2p1|
d |----2---2-----2------3---3-----3--------2---2-----2-------3---3-----3----|
a |-0-0-------000-----------------------0-0-------000-----------------------|
e |------------------1-1-------111------------------------1-1-------111-----|

      I used to love this town and this neighborhood, The streets were safe, the 
schools were good,

        Am                                         F                                Am     F
e |-------------------------------------------------------------------------|
b |----0h1-0h1---0h1p0--0---0-----0--------0h1-0h1---0h1p0---0---0-----0----|
g |----2---2-----2------1h2-1h2---1h2p1----2---2-----2-------1h2-1h2---1h2p1|
d |----2---2-----2------3---3-----3--------2---2-----2-------3---3-----3----|
a |-0-0-------000-----------------------0-0-------000-----------------------|
e |------------------1-1-------111------------------------1-1-------111-----|

      The mill was hummin' twenty-four seven,         I was formin' on the line, three to eleven,


       Am                                         F                                Am      F       G
e |---------------------------------------------------------------1-1---3-3-|
b |-----0h1-0h1----0h1p0---0---0-----0--------0h1-0h1---0h1p0-----1-1---0-0-|
g |-----2---2------2-------1h2-1h2---1h2p1-----2---2----2---------2-2---0-0-|
d |-----2---2------2-------3---3-----3---------2---2----2---------3-3---0-0-|
a |-0-0---------000------------------------0-0-------000----------3-3---3-3-|
e |---------------------1-1-------111-----------------------------1-1---3-3-|

      But eighteen months, two days ago,                  The Mill closed down and moved to Mexico

CHORUS:

Am                     F
I payed my bills, I payed my dues
Am                  F           G
I payed my share of taxes too
Am                    F
Now I cant buy my baby shoes
Am               F              G
I've got the red, white, and pink-slip blues

Solo
Am   F

VERSE 2

        Am                                         F                                 Am         F
e |-------------------------------------------------------------------------|
b |----0h1-0h1---0h1p0--0---0-----0--------0h1-0h1---0h1p0---0---0-----0----|
g |----2---2-----2------1h2-1h2---1h2p1----2---2-----2-------1h2-1h2---1h2p1|
d |----2---2-----2------3---3-----3--------2---2-----2-------3---3-----3----|
a |-0-0-------000-----------------------0-0-------000-----------------------|
e |------------------1-1-------111------------------------1-1-------111-----|

I hide the pickup truck in Ricky Browns garage, Over on the next block, cause 
there's Repo's to dodge 


      Am                                         F                           Am        F       G
e |---------------------------------------------------------------1-1---3-3-|
b |-----0h1-0h1----0h1p0---0---0-----0--------0h1-0h1---0h1p0-----1-1---0-0-|
g |-----2---2------2-------1h2-1h2---1h2p1-----2---2----2---------2-2---0-0-|
d |-----2---2------2-------3---3-----3---------2---2----2---------3-3---0-0-|
a |-0-0---------000------------------------0-0-------000----------3-3---3-3-|
e |---------------------1-1-------111-----------------------------1-1---3-3-|
I slip out the back door, Lord, I never thought Id live to see this day, we're 
gonna need that truck when they come to take the house away,

CHORUS 2

Am                     F
I payed my bills, I payed my dues
Am                  F           G
I payed my share of taxes too
Am                    F
Now I cant buy my little baby shoes
Am               F              G
I've got the red, white, and damn pink-slip blues

Solo

Am F Am F

e |-------------------------------------------------------------------------|
b |-------------------------------------------------------------------------|
g |-------------------------------------------------------------------------|
d |-------------------------------------------------------------------------|
a |----------------------------------------------------------------------0--|
e |-------------------------------------------------------------------0h3---|

      Am                                         F                       Am                F       G
e |-------------------------------------------------------------------3-----|
b |-----0h1-0h1----0h1p0---0---0-----0--------0h1-0h1---0h1p0---------0-----|
g |-----2---2------2-------1h2-1h2---1h2p1-----2---2----2---------1~--0-----|
d |-----2---2------2-------3---3-----3---------2---2----2---------3~--0-----|
a |-0-0---------000------------------------0-0-------000----------3~--3-----|
e |---------------------1-1-------111-------------------------1-1-----3-----|
You know I love my country and I'm not one to complain, But there's a lot of us 
that feel like we've been left out here out in the rain 



Am                     F
I payed my bills, I payed my dues
Am                  F           G
I payed my share of taxes too
Am                    F
Now I cant buy my baby shoes
Am               F              G
Ive got the red, white, and pink-slip blues

Is anybody listening?
            
Submit corrections

comments powered by Disqus
↑ Back to top | Hank Williams Tabs for Red White And Pink Slip Blues. Lyrics for acoustic guitar and electric guitar. Tablatures and chords are parodies/interpretations of the original songs. You may use it for private study, scholarship, research or language learning purposes only