» » »

Hank Williams, Old Habits Tabs (ver.2)

Artists:  A B C D E F G H I J K L M N O P Q R S T U V W X Y Z # 

Old Habits Tabs (ver.2)

Hank Williams Tabs
 Rating:
4/5 (4 votes)
Old Habits lessons Tabs too difficult? Try these video lessons and learn fast
                 Title - Old Habits
 Artist - Hank Williams Jr.


 Tuning: Standard

 Cords Used: D   G   A  
          e|-3-|-3-|-5-|     
          B|-2-|-3-|-2-|       
          G|-3-|-0-|-2-|        
          D|-0-|-0-|-2-|        
          A|-0-|-2-|-0-|        
          E|---|-3-|---|          
                  

 Intro
 e|---------9------------9-----------7------------7------|
 B|---------10-----------10----------8------------8------|
 G|----9----9------9--9--9------7----7------7--7--7------|
 D|----0-----------0--0---------0-----------0--0---------|
 A|------------------------------------------------------|
 E|------------------------------------------------------|

 D                                                 G
 Well I kicked the habit, of smoking back sometime ago.
     A                                                D
 And I tried the hard stuff,but I had to let all that go.
                                           G 
 But the toughest thing I ever gave up was today.
       A                               D
 Cause Old Habits Like You are hard to break.

 D                                        G 
 I use lifesavers to help me get off cigarettes.
     A                                                 D
 But you know for your love I aint found no lifesavers yet.
                                                              G
 And I've grown cold Turkey cause there's not even one kiss a day.
     A                               D 
 And Old habits like you are hard to break.

 G                               D
 Old habits like you are hard to break.
 A                                   D
 Love with someone new is so hard to make.
 G                                               D
 I had grown so use to your love and all of your ways.
     A                               D
 And Old Habits Like You are hard to break

  Outro
 e|---------9------------9-----------7------------7----------3---|
 B|---------10-----------10----------8------------8----------2---|
 G|----9----9------9--9--9------7----7------7--7--7----------3---|
 D|----0-----------0--0---------0-----------0--0-----------0-----|
 A|------------------------------------------------------0-------|
 E|--------------------------------------------------------------|

 End
            
Submit corrections

comments powered by Disqus
↑ Back to top | Hank Williams Tabs for Old Habits. Lyrics for acoustic guitar and electric guitar. Tablatures and chords are parodies/interpretations of the original songs. You may use it for private study, scholarship, research or language learning purposes only