» » »

Hank Williams, I Saw The Light (tab) Tabs (ver.1)

Artists:  A B C D E F G H I J K L M N O P Q R S T U V W X Y Z # 

I Saw The Light (tab) Tabs (ver.1)

Hank Williams Tabs
 Rating:
4/5 (4 votes)
I Saw The Light (tab) lessons Tabs too difficult? Try these video lessons and learn fast
                Hank William       I saw the light                       

e-------0-0---0-0-0-0-0-0------------------
B-0-0-0-0-0---0-2-4-4-2-0------------------
G-0-0-2------------------------------------
D------------------------------------------
A------------------------------------------
E------------------------------------------


e--------0-0--0-0--------------------------
B-0-0-0--0-0--0-0--0-0---------------------
G-2-2-4------------2-0---------------------
D------------------------------------------
A------------------------------------------
E------------------------------------------

e-------0-0---0-0-0-0-0-0--------------------
B-0-0-0-0-0---0-2-4-4-2-0--------------------
G-0-0-2------------------------------------
D------------------------------------------
A------------------------------------------
E------------------------------------------

e-2/3-------0------------------------------
B-2/3-3-5-3-0-3/4-4-1/2-0------------------
G-------------3/4-4-1/2-0------------------
D------------------------------------------
A------------------------------------------
E------------------------------------------

e------------------------------------------
B------------------------------------------
G--------------0---------------------------
D--------0h2p0-----------------------------
A--0h1/2-----------------------------------
E-3----------------------------------------

submitter;VINCENT.J CAISSIE   
            
Submit corrections

comments powered by Disqus
↑ Back to top | Hank Williams Tabs for I Saw The Light (tab). Lyrics for acoustic guitar and electric guitar. Tablatures and chords are parodies/interpretations of the original songs. You may use it for private study, scholarship, research or language learning purposes only