» » »

Hank Williams, Dinosaur Bass tabs (ver.1)

Artists:  A B C D E F G H I J K L M N O P Q R S T U V W X Y Z # 

Dinosaur Bass tabs (ver.1)

Hank Williams Tabs
Rating:
0/5 (0 votes)
Dinosaur lessons Tabs too difficult? Try these video lessons and learn fast
                ----------------------------------------------------------------------
----------------------------------------------------------------------


Tuning: Standard

This is how I play it live. I took the walk-down part of the bass-line out and 
simplified it a bit.

intro
G|---------------------------|
D|---------------------------|
A|---------------------------|
E|--00----55-----00----55----|

verse
G|---------------------------------|
D|---------------------------------|
A|---------------------------------|
E|--0--5---0---5---0---5---2---7---|

G|--------------------------------------------------------|
D|--------------------------------------------------------|
A|--------------------------------------------------------|
E|----5---7---0-----5---7---0-----5---7---0----2----7-----|

chorus
G|--------------------------------------------------------|
D|--------------------------------------------------------|
A|--------------------------------------------------------|
E|----5---7---0-----5---7---0-----5---7---0----2----7-----|

outro 
G|---------------|
D|---------------|
A|---------------|
E|-0--2--7--0----|



| /  slide up
| \  slide down
| h  hammer-on
| p  pull-off
| ~  vibrato
| +  harmonic
| x  Mute note
=====================================================================
            

comments powered by Disqus
↑ Back to top | Hank Williams Bass for Dinosaur. Lyrics for acoustic guitar and electric guitar. Tablatures and chords are parodies/interpretations of the original songs. You may use it for private study, scholarship, research or language learning purposes only