» » »

Wall Flower Tabs (ver.1)

Artists:  A B C D E F G H I J K L M N O P Q R S T U V W X Y Z # 

Wall Flower Tabs (ver.1)

Hangry And Angry
Rating:
0/5 (0 votes)

Tabs too difficult? Try these video lessons and learn fast.
                Hangry & Angry - Wall Flower - from 2008 Mini-album 'Kiss Me Kill Me'

Lyrics borrowed with appreciation from 'JiS' at:
ttp://forum.jphip.com/index.php?topic=17630.0

Key: C

------------------------------------------------------|----|
---------2------------3--2------------2-----------3-2-|----|
---2-1-2--------2-1-2------0----2-1-2-------2-1-2-----|----|
------------------------------------------------------|----|
------------------------------------------------------|----|
-0---------0--1---------------0---------0-1-----------|----|
 Intro

----------------------------------------------||-----------------------------|
----------8----------------10-8---------------||-----------------------------|
-9b--7-9-----------9b-7-9-------9b---9--------||-----------------------------|
-------------10------------------------10-----||-----------------------------|
----------------------------------------------||-----------------------------|
----------------------------------------------||-----------------------------|
 C5       G5       F5
**Riff**

**Verse**
    C
[H] dareka ni kizuite hoshii yo
    Am
[A] hontou wa kizukaretai yo
    G                F
[H] mienai sumi de naku  [A] namonaki hana

    C
[A] jibunrashiku aritai dake
    Am
[H] kore ga suki sou iitaidatte
      G			      F
[H&A] saku kisetsu wa dare ni mo wakaranai

**Bridge**
Am            G           F
kosei shuchou wa retsu wo midasutte iu kedo
Em			 G
sukoshi yuuki wo ataete  gaadian enjeru (guardian angel)

**Chorus**
      C			    Am
I'M A WALL FLOWER BUT I'M A BRIGHT FLOWER Yeah!
G                      F
madogiwa no hana datte ne  sou
C                   Am
taiyou no hikari abireba  hora
F		G	     C
miryoku teki ni saite miseru OH Yes!

**Riff**

**Verse**
    C
[A] saenai keshiki no naka ya
    Am
[H] najimanai wa no naka wa
    G                     F
[A] fuyu ni taeru tsubomi no  [H] kibun ni naru

    C
[A] iya da na kono kuchibiru wa sou
    Am
[H] tame iki no EXIT janai
      G                       F
[H&A] kokoro wo tsutaeru tobira nanda yo

**Bridge**

Am              G              F
kienai fuan no  kage ni obie nemutte mo
Em			 G
hitotsu hinto wo ataete  gaadian enjeru (guardian angel)

**Chorus**

      C			    Am
I'M A WALL FLOWER BUT I'M A BRIGHT FLOWER Yeah!
G		       F
madogiwa no hana datte ne  sou
C		    Am
taiyou no hikari abireba  hora
F		G	     C
miryoku teki ni saite miseru OH Yes!

**Solo**
-----------------------|-----------------7b-7-||---------------------------|
-----------------------|----------------------||---------------------------|
-12-12--12-7-5--5555-4-|-12-12---12-7-5-------||-------------/10-/12-1212--|
-12-12--12-7-5--5555-4-|-12-12---12-7-5-------||-/10-/12-/14---------------|
-----------------------|----------------------||---------------------------|
-----------------------|----------------------||---------------------------|
                                           rpt

--------------------------|------------------------------------------------|
------/131313-12-13-15-15-|------------------------------------------------|
-1212---------------------|------------------------------------------------|
--------------------------|------------------------------------------------|
--------------------------|------------------------------------------------|
--------------------------|------------------------------------------------|

**Middle**

Dm		          Am			    Dm		          Am		   G
[H] kurabenai  [A] dekiru yo  [H] orokana koto  [A] shinai yo  [H] dekiru yo  [H&A] boku nara

**Chorus**

      C			    Am
I'M A WALL FLOWER BUT I'M A BRIGHT FLOWER Yeah!
G		       F
madogiwa no hana datte ne  sou
C		    Am
taiyou no hikari abireba  hora
C		G	      C
miryoku teki ni hikatte mieru sa
	       G	     C      G	       C
(I'M A CHRMING FLOWER) nanairo ni saite miseru yo
	       G 	 C       G		C
(I'M JUST WALL FLOWER) itsuka wa waratte miseru sa

**Finish with Riff**
            
Tabs too difficult? Try these video lessons and learn fast.




comments powered by Disqus
↑ Back to top | Tablatures and chords are parodies/interpretations of the original songs. You may use it for private study, scholarship, research or language learning purposes only