» » »

Hangry And Angry, Top Secret Tabs (ver.1)

Artists:  A B C D E F G H I J K L M N O P Q R S T U V W X Y Z # 

Top Secret Tabs (ver.1)

Hangry And Angry Tabs
 Rating:
4/5 (4 votes)
Top Secret lessons Tabs too difficult? Try these video lessons and learn fast
                Capo1 (everything counted from capo)

INTRO:
--------------------------------------|
--------------------------------------|
--0-0-0-0-0-0-0-0--0-0-0-0-0-0-0-0----|
---------5-5-5-5----------5-5-5-5-----|
-6-6-5-5----------3-3-5-5-------------|
--------------------------------------|x2
Palm Muted=======================
 G   F#  G        C   D   G

VERSE:
-------------------------------------------------------|-
-------------------------------------------------------|-
---------------------------------------0-0-0--00-0-----|-
-------------------------------------------------------|-
-------1-3----------3--0-1------11---------------------|-
-3--3-------1--1-1---------33-3-----3------------------|-
G                     F               G       F 
HEY HEY, YOU KNOW IT, I GOTTA FEELING kakusenai

-------------------------------------------------------|-
-------------------------------------------------------|-
-------------------------------------------------------|-
-------------------------------------------------------|-
-------1-3----------3--0-1-------11--------3--0-1------|-
-3--3-------1--1-1---------3-33------1-1-1-------------|-
G              F            G       F 
MAKEUP sh*te fuku wo kitemo kakusenai

PRECHORUS:
D#                       F      G  
(THERE’S A FEELING NEAR) futari wa
D#                       D      G  
(THERE’S A FEELING NEAR) abunai wa
D#                       F          G    C          D 
(THERE’S A FEELING NEAR) boku no te wa kimi e nobiteyuku

CHORUS:
G   F#    G 
YES NEVER MIND (TOP SECRET)
  C    D      G 
bokura no koi wa (TOP SECRET)
G   F#    G 
YES NEVER MIND (TOP SECRET)
  C   D   G 
yurusarenai (TOP SECRET)

Intro

G                  F                G     F 
YOU MAKE ME DIZZY, OH kimi wa READY doushiyou
G          F              G      F 
nagai kami wo furuhodoite odoridasu

D#             F      G  
PRETTY GIRL 2x ash*ta wo
D#             D       G  
PRETTY GIRL 2x nagesuteta
D#             F            G    C          D 
PRETTY GIRL 2x shoujo tachi sasou SECRET NIGHT

G F#   G 
NOBODY KNOWS (TOP SECRET)
  C   D    G 
warui koto to (TOP SECRET)
G F#   G 
NOBODY KNOWS (TOP SECRET)
  C     D 
kimi wa warau

-----------------------------------------|-
-16v--15v--13v--11v----------------------|-
----------------------14v--------12h14v--|-
-----------------------------------------|-
-----------------------------------------|-
-----------------------------------------|-
 D#             D
hossa ga okita mitaina shodoyou

-----------------------------------------|-
-16v--15v--13v--11v----------------------|-
----------------------14v----------------|-
-----------------------------------------|-
-----------------------------------------|-
-----------------------------------------|-
 D#                D  
boku wa kono mama de ii

------------8--10-----|
-8--7--8-----------8--|
----------------------|
----------------------|
----------------------|
----------------------|   x2
TOP SECRET   TOP SECRET 

----------------------8tr--10tr--15tr-|
-8tr--10tr--11tr----------------------|
--------------------------------------|
--------------------------------------|
--------------------------------------|
--------------------------------------|

-----------------------------------------------------------|
-8--8-7--------6--6-5------4--4-4-3---3-3-8vvv-------------|
-----------------------------------------------------------|
-----------------------------------------------------------|
--------9---9--8------7--7-6----------5-5-10vv-------------|
-----------------------------------------------------------|
                                                TOP SECRET
G   F#    G 
YES NEVER MIND (TOP SECRET)
  C    D      G 
bokura no koi wa (TOP SECRET)
G   F#    G 
YES NEVER MIND (TOP SECRET)
  C   D   G 
yurusarenai (TOP SECRET)

G F#   G 
NOBODY KNOWS (TOP SECRET)
  C   D    G 
warui koto to(TOP SECRET)
G F#   G 
NOBODY KNOWS (TOP SECRET)
  C     D   G
kimi wa warau

D# D# D# D# D#D#
            
Submit corrections

comments powered by Disqus
↑ Back to top | Hangry And Angry Tabs for Top Secret. Lyrics for acoustic guitar and electric guitar. Tablatures and chords are parodies/interpretations of the original songs. You may use it for private study, scholarship, research or language learning purposes only