» » »

Hangry And Angry, Romantic Ni Violence Tabs (ver.1)

Artists:  A B C D E F G H I J K L M N O P Q R S T U V W X Y Z # 

Romantic Ni Violence Tabs (ver.1)

Hangry And Angry Tabs
 Rating:
4/5 (4 votes)
Romantic Ni Violence lessons Tabs too difficult? Try these video lessons and learn fast
1
                Romantic ni Violence - Hangry & Angry
Key: G

**Intro**

--------3--------3--------0-------0-|------------------|---------------|-----|
------3--------3--------3-------3---|------------------|---------------|-----|
----0--------0--------0-------0-----|------------------|---------------|-----|
--2--------0--------0-------0-------|------------------|---------------|-----|
------------------------------------|------------------|---------------|-----|
------------------------------------|------------------|---------------|-----|

--------|--------|-------|-------|--------|-----------|-----------|-----------|
-8--888-|-7--777-|-5-555-|-5-5578|-8--888-|-10-101010-|-12-121212-|-12-121212-|
--------|--------|-------|-------|--------|-----------|-----------|-----------|
--------|--------|-------|-------|--------|-----------|-----------|-----------|
--------|--------|-------|-------|--------|-----------|-----------|-----------|
--------|--------|-------|-------|--------|-----------|-----------|-----------|
E5       D5       C5      C5       E5      F#5         G5         G5         x2

    Em       D           C
[H] itsuka tomodoi ga otozurete
    Em     D            C
[A] nezeka namida ga afuredasu
    Em     D          C
[H] daisukidatta hazu nano ni
        Em          D      C
[H&A] naze suteteshimattan darou
     Em             Bm
mata memai ga tomaranai yo NO WAY

Em          C             Em              D       Em
romantic ni violence  kuroi manicure nuri saa yukou
            C             Em      D     Em  B5 B5 A5 G5
romantic ni violence  ano yoru no mukou e

Em          C             Em              D      Em
romantic ni violence  fukashigi na otome gokoro wa
            C             Em      D     G
romantic ni violence  dare mo tomerarenai

    Em       D           C
[A] kokoro ga harisakete yuku yo
    Em       D           C
[H] hakanai hikari terasu machi
    Em       D           C
[A] zutto kimi ni aitai noni
        Em           D      C
[H&A] naze kesh*teshimattan darou
     Em             Bm
mata miminari tomaranai yo NO WAY

Em          C             Em              D       Em
romantic ni violence  kami wo kiri otoshi saa yukou
            C              Em      D       Em
romantic ni violence  kimi ga nemuru basho e

Em          C             Em          D       Em
romantic ni violence  atari mae no shiawase nante
            C              Em        D    G
romantic ni violence  doko ni mo nai kara ne

**Intro**

**Solo**
---------7-7--------|--------------------------------------------------------|
-8-5-8-------10-----|--------------------------------------------------------|
------------------9-|--------------------------------------------------------|
--------------------|--------------------------------------------------------|
--------------------|--------------------------------------------------------|
--------------------|-x4-----------------------------------------------------|
Played Over:
E5  D5  C5  C5    E5 F#5 G5 G5  x2

Em          C             Em              D       Em
romantic ni violence  kuroi manicure nuri saa yukou
            C              Em      D       Em
romantic ni violence  ano yoru no mukou e

Em          C             Em              D       Em
romantic ni violence  fukashigi na otome gokoro wa
            C              Em      D       Em
romantic ni violence  dare mo tomerarenai

Em          C             Em              D       Em
romantic ni violence  atari mae no shiawase nante
            C              Em        D     G
romantic ni violence  doko ni mo nai kara ne

**Solo**
            
Submit corrections

comments powered by Disqus
↑ Back to top | Hangry And Angry Tabs for Romantic Ni Violence. Lyrics for acoustic guitar and electric guitar. 1 Tablatures and chords are parodies/interpretations of the original songs. You may use it for private study, scholarship, research or language learning purposes only