» » »

Lady Madonna Tabs (ver.1)

Artists:  A B C D E F G H I J K L M N O P Q R S T U V W X Y Z # 

Lady Madonna Tabs (ver.1)

Hangry And Angry
Rating:
0/5 (0 votes)

Tabs too difficult? Try these video lessons and learn fast.
                
Intro
-12----------------------|
----10-13-10-12-10----10-|
-------------------13----|
-------------------------|
-------------------------|
-------------------------|

PARIS
F   E    Am   G
F   G#m  Am   G

F        E        Am     G
soredemo boku wa aisaretakatta
F               G#m          Am         G
owari ga soba ni aru koro ga ichiban amai kara
F               E         Am         G
kimi to boku no kage ga niteru kara itami sae mo
F         G#m         Am
itooshiku kanjite shimaunda
        C
(I FEEL ASLEEP)

*PARIS Riff*
-----------------------------------------------|
-----------------------------------------------|
-----------------------------------------------|
---7vvvv-6tr7p6vvv--------9vvv-----------------|
-------------------------------7tr8p7vvvv------|
--------------------------------------------x2-|
Played over: F   E    Am   G    F   G#m  Am   G

*Chorus*
------------------------------|
------------------------------|
------------------------------|
-----7-------6----------------|
-----7-------6--------5-------|
-5-5-5---4-4-4--5-7-8---------|
LADY MADONNA ashi wo keriagete

------------------------------|
------------------------------|
------------------------------|
-----7-------6----------------|
-----7-------6--------5-------|
-5-5-5---4-4-4--5-7-8---------|
LADY MADONNA atsuku odore

----------------------------------------------------|
----------------------------------------------------|
----------------------------------------------------|
-----7-------6-------5-------4-------3-------2---7--|
-----7-------6-------5-------4-------3-------2---7--|
-5-5-5---4-4-4---3-3-3---2-2-2---1-1-1---0-0-0---5--|
LADY MADONNA boku wo furimawash*te LADY MADONNA, GIMME A TRUTH

-----------------------|
-----------------------|
-----------------------|
-----7-------6---7-----|
-----7-------6---7-----|
-5-5-5---4-4-4---5-----|
LADY MADONNA yurush*te

       A5    A5-G#5   A5
LADY MADONNA, GIMME A LIE

*PARIS Riff*

F             E         Am           G
dosh*te konna ni iki ga tsumariso ni naru?
F            G#m         Am          G
shiranai BED no ue no tenjo miagete iru kara?

*PARIS Riff*

*Chorus*
------------------------------|
------------------------------|
------------------------------|
-----7-------6----------------|
-----7-------6--------5-------|
-5-5-5---4-4-4--5-7-8---------|
LADY MADONNA "sora no hate e"

------------------------------|
------------------------------|
------------------------------|
-----7-------6----------------|
-----7-------6--------5-------|
-5-5-5---4-4-4--5-7-8---------|
LADY MADONNA "tsurete itte"

----------------------------------------------------|
----------------------------------------------------|
----------------------------------------------------|
-----7-------6-------5-------4-------3-------2---7--|
-----7-------6-------5-------4-------3-------2---7--|
-5-5-5---4-4-4---3-3-3---2-2-2---1-1-1---0-0-0---5--|
LADY MADONNA kimi ga itta LADY MADONNA, GIMME A TRUTH

------------------------------|
------------------------------|
------------------------------|
-----7-------6----------------|
-----7-------6--------5-------|
-5-5-5---4-4-4--5-7-8-----x2--|
LADY MADONNA kimi no uso ni boku wa sukoshizutsu fukami ni hamatte

------------------------------------------------|
------------------------------------------------|
------------------------------------------------|
-----7-------6-------5-------4---3----3-2----7--|
-----7-------6-------5-------4---3----3-2----7--|
-5-5-5---4-4-4---3-3-3---2-2-2---1----1-0----5--|
LADY MADONNA nani saretemo LADY MADONNA waratte

*Middle*
-------1------------3-------------------------------------------------|
---------1--------1---1-----------------------------------------------|
-----------2----------------------------------------------------------|
----------------------------------------------------------------------|
----------------------------------------------------------------------|
----------------------------------------------------------------------|
F              C            E                Am       C
dareka no waraigoe ga mata boku no atama no ue wo torisugita
F              C
kimi to futari ga ii

E
OH LADY MA LADY MA LADY MA LADY MA LADY MA LADY MA
LADY MADONNA

*PARIS Riff*

F   E    Am   G
F   G#m  Am   C

*Chorus*
-----------------------------------------------------------------------------|
-----------------------------------------------------------------------------|
-----------------------------------------------------------------------------|
-7----7-6----77777777---7----7-6----77777777-7---7-6---55554444--3---3-2-----|
-7----7-6---------------7----7-6-------------7---7-6-------------3---3-2-----|
-5----5-4---------------5----5-4-------------5---5-4-------------1---1-0-----|
LADY MADONNA ashi wo keriagete LADY MADONNA atsuku odore
LADY MADONNA boku wo furimawash*te LADY MADONNA, GIMME A LIE

------------------------------|
------------------------------|
------------------------------|
-----7-------6----------------|
-----7-------6--------5-------|
-5-5-5---4-4-4--5-7-8-----x2--|
LADY MADONNA kimi ni furetainda LADY MADONNA kimochi ii no?

----------------------------------------------------|
----------------------------------------------------|
----------------------------------------------------|
-----7-------6-------5-------4-------3-------2---7--|
-----7-------6-------5-------4-------3-------2---7--|
-5-5-5---4-4-4---3-3-3---2-2-2---1-1-1---0-0-0---5--|
LADY MADONNA nani wo sh*temo LADY MADONNA yurush*te

------------------------------|
------------------------------|
------------------------------|
-----7-------6----------------|
-----7-------6--------5-------|
-5-5-5---4-4-4--5-7-8-----x2--|
LADY MADONNA "sora no hate e" LADY MADONNA "tsurete itte"

----------------------------------------------------|
----------------------------------------------------|
----------------------------------------------------|
-----7-------6-------5-------4-------3-------2---7--|
-----7-------6-------5-------4-------3-------2---7--|
-5-5-5---4-4-4---3-3-3---2-2-2---1-1-1---0-0-0---5--|
LADY MADONNA kimi ga itta LADY MADONNA, GIMME A TRUTH

-----------------------|
-----------------------|
-----------------------|
-----7-------6---7-----|
-----7-------6---7-----|
-5-5-5---4-4-4---5-----|
LADY MADONNA, GIMME A TRUTH,

       A5    A5-G#5   A5
LADY MADONNA, GIMME A LIE

*PARIS Riff*
            
Tabs too difficult? Try these video lessons and learn fast.


comments powered by Disqus
↑ Back to top | Tablatures and chords are parodies/interpretations of the original songs. You may use it for private study, scholarship, research or language learning purposes only