» » »

Giza Giza Tabs (ver.1)

Artists:  A B C D E F G H I J K L M N O P Q R S T U V W X Y Z # 

Giza Giza Tabs (ver.1)

Hangry And Angry
Rating:
0/5 (0 votes)

Tabs too difficult? Try these video lessons and learn fast.
                GIZA GIZA by Hangry & Angry

Key: Em

Intro:
---------------------------------|--7----------------------------------------|
---------------------------------|--8----------------------------------------|
---------------------------------|--9----------------------------------------|
---------------------------------|--9----------------------------------------|
-2-2-2----2-2----2-2-2----2-2----|--7----------------------------------------|
-0-0-0----0-0----0-0-0----0-0-x3-|--7----------------------------------------|
 E5

---3---3---3------3------2---2---------0--------------------------------------|
-----5---5---5-------0-0-------7p5-5p3----------------------------------------|
-----------------------------------------4---4-5-4---------------------5-5-5--|
-----------------------------------------------------2-2-2-2---4-4-4-4--------|
------------------------------------------------------------------------------|
------------------------------------------------------------------------------|
                                                     E5        F#5

--------------------|----------|----------|-7~~~~~~~~|~~~~~~~~~~|------------|
--------------------|----------|----------|----------|----------|------------|
-5---4---2-4-2-4----|----------|----------|-----9~~~~|~~~~~~~~~~|------------|
--------------------|----------|----------|----------|----------|------------|
--------------------|----------|----------|----------|----------|------------|
-----------------x2-|----------|----------|----------|----------|------------|
                      E5        E5          E5        E5


    Em  C         Am                                 Em  C         Am
[A] kirawaretakunai kara boku wa sukoshi dake  [H&A] uso wo tsuita no
    Em C              Am                      Em  C    D            D5
[H] honto wo misetara boku wa kimi no soba ni irarenaku naru  [H&A] ki ga sh*ta
    Am                    Em
[H] itai no wa nareteru hazu nano
    Am                   C           Am               A
[A] nakigoto mo kobosanaishi  namida mo  [H&A] misenaiwa

Em                 C      Am          B
giragira kagayaku  giniro tsugihagi moyou
Em      B          Am     Em
itai kioku to amai omoide to
Em                 C          Am           B
kirakira matataku  tsuki no hikari wo abitara
Em         B             Am         Em
chirachira odoru kimi to futago no kage

    Em  C         Am                                 Em    C         Am
[H] kuchi ni iretara  [A] tokeru kurai amai yo  [H&A] boku no kotoba wa
    Em C              Am                      Em   C    D                  D5
[H] nomikonda nara  [A] yagate doku ni kawaru no?  [H] tabeta furish*te  [H&A] hakidash*ta
    Am                    Em
[A] uso wo tsuku boku wo dakishimete
    Am                   C           Am               A
[H] boku wa tada hitorikiri ga  sabishii  [H&A] dake nanda

Em                 C        Am        B
barabara chirabaru  boku no kokoro no kakera wa
Em      B          Am     Em
kirakira sokorajuu de hikatteru
Em                 C        Am             B
yurayura yureteru  kimi no namida wo misete yo
Em      B          Am     Em
nani sarete mo kimi nara yuru seru no

Em        Bm        C        Am        G
boku wa konomama  kimi to ochite yukeru no

Intro

Em                 C      Am          B
giragira kagayaku  giniro tsugihagi moyou
Em      B          Am     Em
itai kioku to amai omoide to
Em                 C      Am          B
kirakira matataku  tsuki no hikari wo abitara
Em      B          Am     Em
chirachira odoru kimi to futago no kage

Em                 C      Am          B
barabara chirabaru  boku no kokoro no kakera wa
Em      B          Am     Em
kirakira sokorajuu de hikatteru
Em                 C      Am          B
yurayura yureteru  kimi no namida wo misete yo
Em      B          Am     Em
nani sarete mo kimi nara yuru seru no

E5 Intro pattern
yuru seru no  yuru seru no
yuru seru no  yuru seru no
            
Tabs too difficult? Try these video lessons and learn fast.




comments powered by Disqus
↑ Back to top | Tablatures and chords are parodies/interpretations of the original songs. You may use it for private study, scholarship, research or language learning purposes only