» » »

Hangry And Angry, Angelina Tabs (ver.1)

Artists:  A B C D E F G H I J K L M N O P Q R S T U V W X Y Z # 

Angelina Tabs (ver.1)

Hangry And Angry Tabs
 Rating:
4/5 (4 votes)
Angelina lessons Tabs too difficult? Try these video lessons and learn fast
                Angelina by Hangry & Angry (Kiss Me Kill me version)

Key:F#m

Intro:
-----------9-9-----|---------------------|-----------9-9-----|----------------|
-10-10-9-9-----9-9-|-10-10-9-9-12-12-9-9-|-10-10-9-9-----9-9-|-10-10-9-9-12---|
-------------------|---------------------|-------------------|----------------|
-------------------|---------------------|-------------------|----------------|
-------------------|---------------------|-------------------|----------------|
-------------------|---------------------|-------------------|----------------|

-12-9-----|
----------|
------444-|
------444-|
------222-|

-14----12-|-14-------12-|-14----------|----------|---------------------------|
----------|-------12----|-------14-12-|----------|---------------------------|
----------|-------------|-------------|-14-------|---------------------------|
----------|-------------|-------------|----------|---------------------------|
----------|-------------|-------------|----------|---------------------------|
----------|-------------|-------------|----------|---------------------------|
 Angelina  Angelina      Angelina      I Sick

    F#m       G#m          A       D     C#         F#m
[A] kimi yori mo sukoshi dake  hayaku keikensh*ta dake
    F#m     G#m         A       D    C#           F#m
[H] jibun demo iya ni naru  subete miete shimau kara

        F#m      E A          F#m     A E          F#m       E
boku wa Angelia?      dare ga Angelia?     saki ga mietara subete ga sameru
F#m
no
        F#m               Bm  A         F#m  Bm     A           F#m
kimi ga Angelia?  kimi no kanashimi sae mo subete maboroshi dakara

F#m       A
F#m
A-A-A-Angelina

A  E  F#m

    F#m       G#m       A       D     C#           F#m
[H] hitori de mezameru asa  kasuka ni nokoru risei ga
    F#m       G#m        A       D     C#        F#m
[A] boku no karada okosh*te  keshou wo hajimesaseru

       F#m                     E A        F#m                     A E
yagamu asu wo riaraizu(realize)    yureru asu wo riaraizu(realize)   kitto
   F#m      E             F#m
hontou wa boku wa nani mo shiranai
        F#m              Bm   A        F#m      F#m  Bm       A     F#m
kimi ga Angelia?  hontou wa wakatteita no  boku wa tenshi ni mo narenai

**Solo**
-----------9-9-----|---------------------|-----------9-9-----|---------------|
-10-10-9-9-----9-9-|-10-10-9-9-12-12-9-9-|-10-10-9-9-----9-9-|-10-10-9-9-12--|
-------------------|---------------------|-------------------|---------------|
-------------------|---------------------|-------------------|---------------|
-------------------|---------------------|-------------------|---------------|
-------------------|---------------------|-------------------|---------------|

--------|----------|-----------------|------------|------12-------12----------|
-12-9-9-|----------|-----------------|------------|-9h10-----9h10----9h10p9---|
--------|----------|-----------------|------------|---------------------------|
--------|-444------|-444---2/4-------|-444--------|---------------------------|
--------|-444------|-444-------4v-2v-|-444--------|---------------------------|
--------|-222------|-222-------------|-222--------|---------------------------|

-12p10-|--12-10/12\10/12\10/12\10/12--9/12/14/16/17-|------------------------|
-------|--------------------------------------------|------------------------|
-------|--------------------------------------------|------------------------|
-------|--------------------------------------------|------------------------|
-------|--------------------------------------------|------------------------|
-------|--------------------------------------------|------------------------|
        F#m      E A          F#m     A E          F#m       E
boku wa Angelia?      dare ga Angelia?     saki ga mietara subete ga sameru
F#m
no
        F#m      E A          F#m     A E          F#m           E
boku wa Angelia?     dare ga Angelia?      kimi ga nakidazu to nanika ga
F#m
kuruu no

        F#m                    Bm      A    F#m  Bm        A         F#m
kimi wa Angelia?  mou ichido boku ni hikari wo terash*te kureta kimi wa
   Bm    E
tenshi nano?
F#m  Bm       A            F#m
sore sae mo maboroshidatta no?

**Outro**

-14v-----|---------12|------------|-------------|-14v---12-|-14---16-|-14----|
-------12|-14----12--|-14------12-|----12-14----|----------|---------|-------|
---------|-----------|------------|-14-------13-|----------|---------|-------|
---------|-----------|------------|-------------|----------|---------|-------|
---------|-----------|------------|-------------|----------|---------|-------|
---------|-----------|------------|-------------|----------|---------|-------|
 Angelina  Angelina    Angelina    I Lost My Way|Angelina   Angelina Angel-

---12|-14----|-12-14----|--14v-----|-/17-16--------------|------12---|-------|
-----|----14-|----------|----------|--------17----17-14v-|-12--------|-------|
-----|-------|----------|----------|-----------16--------|-----------|-------|
-----|-------|----------|----------|---------------------|-----------|-------|
-----|-------|----------|----------|---------------------|-----------|-------|
-----|-------|----------|----------|---------------------|-----------|-------|
 ina  I Sick               Angelina                      Angelina

------------|--------------|-14v-----|-1214--16-|17-19-21-16|17-----12-|-----|
--14v-----12|-----12-14----|---------|----------|-----------|----------|-----|
------------|-14--------13-|---------|----------|-----------|----------|-----|
------------|--------------|---------|----------|-----------|----------|-----|
------------|--------------|---------|----------|-----------|----------|-----|
------------|--------------|---------|----------|-----------|----------|-----|
 Angelina     I Lost My Way Angelina             Angelina   Angelina

--14-------12-|-17---16-|-12--------|------12-|----------|----------12-|-14---|
-----14-12----|---------|-----12-14-|-12------|-14----12-|----12-14----|------|
--------------|---------|-----------|---------|----------|-14----------|------|
--------------|---------|-----------|---------|----------|-------------|------|
--------------|---------|-----------|---------|----------|-------------|------|
--------------|---------|-----------|---------|----------|-------------|------|
 I Sick
            
Submit corrections

comments powered by Disqus
↑ Back to top | Hangry And Angry Tabs for Angelina. Lyrics for acoustic guitar and electric guitar. Tablatures and chords are parodies/interpretations of the original songs. You may use it for private study, scholarship, research or language learning purposes only