» » »

Hangnail, Pivot Tabs (ver.1)

Artists:  A B C D E F G H I J K L M N O P Q R S T U V W X Y Z # 

Pivot Tabs (ver.1)

Hangnail Tabs
 Rating:
4/5 (4 votes)
Pivot lessons Tabs too difficult? Try these video lessons and learn fast
1
                ******************
*HANGNAIL - PIVOT*
******************
Si vous ├ęcoutez la tramme vous seriez normalement capable de la jouer avec la tablature...

legende : p.m. = Palm mute

|----------------------------------------|
|----------------------------------------|
|----------------------------------------|
|----------------------------------------| X3
|--9-9-9-9-9-9-9-9--5-5-5-5-5-5-5-5------|
|--7-7-7-7-7-7-7-7--3-3-3-3-3-3-3-3------|
  /--------double picking----------\

|----------------------------|
|----------------------------|
|----------------------------|
|----------------------------|
|-----7-7-7-7--4-4-4-4-------|
|-----5-5-5-5--2-2-2-2-------|


|---------------------------------------------------------------------------|
|---------------------------------------------------------------------------|
|---------------------------------------------------------------------------|
|----------------------------5----------------------------------------------|
|--9-9-9-9-9-9--5-5-5-5-5-5--7-9-9-9-9-9-9-9-9--5-7-5-9-9-9-9-5-5-5-5-5-5---|X2
|--7-7-7-7-7-7--3-3-3-3-3-3----7-7-7-7-7-7-7-7--3-5-3-7-7-7-7-3-3-3-3-3-3---|

|------------------------------------------------|
|------------------------------------------------|
|------------------------------------------------|
|-------------------7-7-----7-7--5-5-5-5---------|
|-9-9-9-9--5-5-5-5--5-5-7-7-5-5--3-3-3-3---------|
|-7-7-7-7--3-3-3-3------5-5----------------------|


|-------------------------------------|
|-------------------------------------|
|-------------------------------------|
|-------------------------------7-----|
|-------9-------9-------5--5-5--5-----|
|--7-7--7--7-7--7--3-3--3-------------|
   p.m.    p.m.    p.m.    p.m.

|----------------------------------------------|
|----------------------------------------------|
|----------------------------------------------|
|-------------------------------7------6-------|
|-------9-------9-------5--5-5--5--4-4-4-------|
|--7-7--7--7-7--7--3-3--3----------------------|
   p.m.    p.m.    p.m.    p.m.    p.m.

|----------------------------------------------------------|
|----------------------------------------------------------|
|----------------------------------------------------------|
|-------------------------------7------6--7-7-6-6-7-7-9-9--|
|-------9-------9-------5--5-5--5--4-4-4--5-5-4-4-5-5-7-7--|
|--7-7--7--7-7--7--3-3--3----------------------------------|
   p.m.    p.m.    p.m.    p.m.    p.m.


|----------------------------------------------------------------------------------------------------------------|
|----------------------------------------------------------------------------------------------------------------|
|----------------------------------------------------------------------------------------------------------------|
|-----------------------------7-7-7-7-7--------------------------------------------------------7-7-7-7-----------|
|--9-9-9-9--5-5-5-5--4-4-4-4--5-5-5-5-5--5-5-5-5--4-4-4-4--7-7-7-7--9-9-9-9--5-5-5-5--4-4-4-4--5-5-5-5--7-7-7-7--|
|--7-7-7-7--3-3-3-3--2-2-2-2-------------3-3-3-3--2-2-2-2--5-5-5-5--7-7-7-7--3-3-3-3--2-2-2-2-----------5-5-5-5--|


|------------------------|
|------------------------|
|------------------------|
|------------------------|Un genre de solo
|--9-9-9-10-9-7----------|
|---------------7--------|


|----------------------------------------------------------------------------------------------------------------|
|----------------------------------------------------------------------------------------------------------------|
|----------------------------------------------------------------------------------------------------------------|
|--7-7-7-7-7-7-7--7-7-7-7-7-7-7-----------------------------------7-7-7-7-7-7-7-7--7-7-7-7-7-7-7-----------------|
|--5-5-5-5-5-5-5--4-4-4-4-4-4-4--5-5-5-5-5-5-5-5--7-7-7-7-7-7-7-7-5-5-5-5-5-5-5-5--4-4-4-4-4-4-4--5-5-5-5let ring|
|--------------------------------3-3-3-3-3-3-3-3--5-5-5-5-5-5-5-5---------------------------------3-3-3-3--------|



|----------------------------------------------------------------------------------------------------|
|----------------------------------------------------------------------------------------------------|
|----------------------------------------------------------------------------------------------------|
|-7-7-7-7-7-7-7-7--7-7-7-7-7-7-7-7-------------------------------------------------------------------|
|-5-5-5-5-5-5-5-5--4-4-4-4-4-4-4-4--5-5-5-5-5-5-5-5--7-7-7-7-7-7-7-7--5-5-5-5-5-5-5-7--7-7-7-7-7-7---|
|-----------------------------------3-3-3-3-3-3-3-3--5-5-5-5-5-5-5-5--3-3-3-3-3-3-3-5--5-5-5-5-5-5---|
            
Submit corrections

comments powered by Disqus
↑ Back to top | Hangnail Tabs for Pivot. Lyrics for acoustic guitar and electric guitar. 1 Tablatures and chords are parodies/interpretations of the original songs. You may use it for private study, scholarship, research or language learning purposes only