» » »

Hangnail, Keep On Tabs (ver.1)

Artists:  A B C D E F G H I J K L M N O P Q R S T U V W X Y Z # 

Keep On Tabs (ver.1)

Hangnail Tabs
 Rating:
4/5 (4 votes)
Keep On lessons Tabs too difficult? Try these video lessons and learn fast
                KEEP ON by HANGNAIL 

Written by HANGNAIL 



I know it's not 100% correct 'cos the A string is played open at many intervals between notes in the intro. It sounds fine though. Well here goes. 

Drop D methinks. 

Intro 

D ---/11----11----9h11p9----9----5----7----5----5h7p5----4----0----2----0----2----4----2----4----5----4----

A-----------------------------------------------------------------------------------------------------------------------

D----------------------------------------------------------------------------------------------------------------------- 

 

G ---------2----2------------------------------------------------------------------------------------------------------ 

D ----5---------------5h7p5----4----0----2----4----2h4p2p0----2------------------------------------------------ 

A -----------------------------------------------------------------------------------------------repeat x 4-----------

D ----------------------------------------------------------------------------------------------------------------------

 

Then it ends with:

G------------------------------------------------2----2---------------------------------------------------------------

D ----0----2----4----2----4----5----4----5---------------5h7p5----4----0----2----4----2h4p2p0----2--------- 

A --------------------------------------------------------------------------------------------------------------------- 

D --------------------------------------------------------------------------------------------------------------------- 

 

G ------------------------------------------------2--------

D ----0----2----4----2----4----5----4----5-------------- 

A ----------------------------------------------------------

D ---------------------------------------------------------- 

 

 

That's the intro anyway 

 

Bridge

G -----------12------------12------------12------------12------------12--------------------11------------11-------

D -----------------14-----------14------------14------------14------------14--------------------12------------12-- 

A ----0--0--------------0------------0-------------0-------------0--------------0----0--0-------------0------------0 

D ----------------------------------------------------------------------------------------------------------------------- 

  

1,2,3,4,5 6. 

G ----11------------11------------11--------------] ----11--------------------- 

D ---------12------------12------------12---------] ----12--------------------- 

A ---------------0-------------0--------------0-----] -----0---------------------- 

D----------------------------------------------------] ----------------------------- 

 

This is reapeated 6x, with the variation shown above

Then I think it goes like this:

 

D ----7--7--7--10--10--10--9--9--9--12--12--12--10--10--14--14------7--7--7--10--10--10--9--9--9--12-- 

A ----0--0--0---0---0----0---0--0--0--0----0---0----0---0----0---0-------0--0--0---0---0----0--0--0--0---0-- 

D ---------------------------------------------------------------------------------------------------------------------- 

 

D ---12--12--10----10------ 

A ----0---0----0-----0-------

D ----------------------------- This is played twice, before going back to the bridge

 

After the bridge is played for a second time, the distorted bit goes something like this. I think.

D ----7--7--7--10--10--10--9--9--9--12--12--12--10--10--14--14--7--7--7--10--10--10--9--9--9--12--12-

A ----7--7--7--10--10--10--9--9--9--12--12--12--10--10--14--14--7--7--7--10--10--10--9--9--9--12--12-

D ----7--7--7--10--10--10--9--9--9--12--12--12--10--10--14--14--7--7--7--10--10--10--9--9--9--12--12- 

 

D ----12--10----10----

A ----12--10----10---- 

D ----12--10----10---- Play this four times.

 

Then I sort of get lost a bit. Laziness. 

If anyone gets the rest, please mail me. Especially for the solo. 

Hope this has helped a bit anyway.
            
Submit corrections

comments powered by Disqus
↑ Back to top | Hangnail Tabs for Keep On. Lyrics for acoustic guitar and electric guitar. Tablatures and chords are parodies/interpretations of the original songs. You may use it for private study, scholarship, research or language learning purposes only