>
 >
I Will Stay

I Will Stay Guitar Tabs

Hangmen - I Will Stay chords, tabs, tablatures, lyrics

Guitar lessons | Add/correct | Request | Top 50 tabs Artists:  A B C D E F G H I J K L M N O P Q R S T U V W X Y Z 0-9

I Will Stay Guitar Tabs – Hangmen

CD, Sheet music, Poster

Do you like I Will Stay? Share with your friends now
ChordsTabsUkulele
I WILL STAY
THE HANGMEN (FROM ALBUM IN THE CITY)

Intro: e-a Am Asus2 Am Asus2 Am Am Asus2 Am (4x)

---- intro ----
                               Am   Asus2 Am   Asus2
     Q   Q   Q   E  E     Q    Q    E     Q    E      
E||--------------------|-------0----0-----0----0----|
B||--------------------|-------1----0-----1----0----|
G||--------------------|-------2----2-----2----2----|
D||--------------------|-------2----2-----2----2----|
A||--------------------|--0----0----0-----0----0----|
E||-----------------0--|----------------------------|

  Am   Am   Asus2 Am              Am   Asus2 Am   Asus2  
  Q    Q    E     Q    E     Q    Q    E     Q    E      
--0----0----0-----0-------|-------0----0-----0----0-----|
--1----1----0-----1-------|-------1----0-----1----0-----|
--2----2----2-----2-------|-------2----2-----2----2-----|
--2----2----2-----2-------|-------2----2-----2----2-----|
--0----0----0-----0-------|--0----0----0-----0----0-----|
-----------------------0--|-----------------------------|

  Am   Am   Asus2 Am              Am   Asus2 Am   Asus2  
  Q    Q    E     Q    E     Q    Q    E     Q    E      
--0----0----0-----0-------|-------0----0-----0----0-----|
--1----1----0-----1-------|-------1----0-----1----0-----|
--2----2----2-----2-------|-------2----2-----2----2-----|
--2----2----2-----2-------|-------2----2-----2----2-----|
--0----0----0-----0-------|--0----0----0-----0----0-----|
-----------------------0--|-----------------------------|

  Am   Am   Asus2 Am              Am   Asus2 Am   Asus2  
  Q    Q    E     Q    E     Q    Q    E     Q    E      
--0----0----0-----0-------|-------0----0-----0----0-----|
--1----1----0-----1-------|-------1----0-----1----0-----|
--2----2----2-----2-------|-------2----2-----2----2-----|
--2----2----2-----2-------|-------2----2-----2----2-----|
--0----0----0-----0-------|--0----0----0-----0----0-----|
-----------------------0--|-----------------------------|

  Am   Am   Asus2 Am         F5   F5   F5 F5 F5 F5  
  Q    Q    E     Q    E     Q    Q    E  E  E  E   
--0----0----0-----0-------|------------------------|
--1----1----0-----1-------|------------------------|
--2----2----2-----2-------|------------------------|
--2----2----2-----2-------|--3----3----3--3--3--3--|
--0----0----0-----0-------|--3----3----3--3--3--3--|
-----------------------0--|--1----1----1--1--1--1--|
                  I  will    stay         by    your ...

----

Verse 1:
       F            G               Am
I will stay by your side now and forever,
       F           G               Am
I will always only be in love with you.

---- verse ----

   F5   F5   F5 F5 F5 F5    G5   G5   G5 G5 G5 G5  
   Q    Q    E  E  E  E     Q    Q    E  E  E  E   
|------------------------|------------------------|
|------------------------|------------------------|
|------------------------|------------------------|
|--3----3----3--3--3--3--|--5----5----5--5--5--5--|
|--3----3----3--3--3--3--|--5----5----5--5--5--5--|
|--1----1----1--1--1--1--|--3----3----3--3--3--3--|


  Am   Am   Asus2 Am   Asus2    Am   Am   Asus2 Am   Asus2  
  Q    Q    E     Q    E        Q    Q    E     Q    E      
--0----0----0-----0----0-----|--0----0----0-----0----0-----|
--1----1----0-----1----0-----|--1----1----0-----1----0-----|
--2----2----2-----2----2-----|--2----2----2-----2----2-----|
--2----2----2-----2----2-----|--2----2----2-----2----2-----|
--0----0----0-----0----0-----|--0----0----0-----0----0-----|
-----------------------------|-----------------------------|

----

Verse 2:
      F             G                 Am 
Is it true when you say that you love me?
          F         G       Am
And is it true that I'll go on?


Chorus:
       F             Am
In the day we walk together
       F                E
In the night I think of you.

---- chorus ----

   F5 F5 F5 F5 F5 F5 F5 F5  
   E  E  E  E  E  E  E  E   
|--------------------------|
|--------------------------|
|--------------------------|
|--x--x--x--x--x--x--x--x--|
|--x--x--x--x--x--x--x--x--|
|--x--x--x--x--x--x--x--x--|


  F5 F5 F5 F5 F5 F5 F5 F5    Am   Am   Asus2 Am   Asus2  
  E  E  E  E  E  E  E  E     Q    Q    E     Q    E      
--------------------------|--0----0----0-----0----0-----|
--------------------------|--1----1----0-----1----0-----|
--------------------------|--2----2----2-----2----2-----|
--x--x--x--x--x--x--x--x--|--2----2----2-----2----2-----|
--x--x--x--x--x--x--x--x--|--0----0----0-----0----0-----|
--x--x--x--x--x--x--x--x--|-----------------------------|


  Am   Am   Asus2 Am   Asus2    F5 F5 F5 F5 F5 F5 F5 F5  
  Q    Q    E     Q    E        E  E  E  E  E  E  E  E   
--0----0----0-----0----0-----|--------------------------|
--1----1----0-----1----0-----|--------------------------|
--2----2----2-----2----2-----|--------------------------|
--2----2----2-----2----2-----|--x--x--x--x--x--x--x--x--|
--0----0----0-----0----0-----|--x--x--x--x--x--x--x--x--|
-----------------------------|--x--x--x--x--x--x--x--x--|


  F5 F5 F5 F5 F5 F5 F5 F5    E5 E5 E5 E5 Esus2 Esus2 Esus2 E5  
  E  E  E  E  E  E  E  E     E  E  E  E  E     E     E     E   
--------------------------|--------------7-----7-----7--------|
--------------------------|--------------7-----7-----7--------|
--------------------------|--9--9--9--9--9-----9-----9-----9--|
--x--x--x--x--x--x--x--x--|--9--9--9--9--9-----9-----9-----9--|
--x--x--x--x--x--x--x--x--|--7--7--7--7--7-----7-----7-----7--|
--x--x--x--x--x--x--x--x--|-----------------------------------|


  E5   
  W     
-------------------|
-------------------|
--9----------------|
--9----------------|
--7----------------|
-------------------|

----

Verse 3:
      F             G                 Am 
Is it true when you say that you love me?
          F         G       Am
And is it true that I'll go on?


Instrumental (1x verse chords):

---- instrumental ----

     H        Q    Q       H        E  Q    E   
E||---------------------|----------------------|
B||----------------0----|--1--------L--3----1--|
G||-----------2---------|----------------------|
D||---------------------|----------------------|
A||---------------------|----------------------|
E||---------------------|----------------------|


  H        E  E  E  E     E  H.           E   
-----------------------|---------------------|
--0--------L--0--1--0--|---------------------|
-----------------------|--2------------------|
-----------------------|-----2------------L--|
-----------------------|---------------------|
-----------------------|---------------------|


  H        Q    Q       H        Q    Q   
---------------------|---------------------|
----------------0----|--1--------3----1----|
-----------2---------|---------------------|
---------------------|---------------------|
---------------------|---------------------|
---------------------|---------------------|


  H        Q    Q       W               W           
---------------------|---------------|--5----------|
--0------------------|---------------|-------------|
-----------2----0----|--2------------|-------------|
---------------------|---------------|-------------|
---------------------|---------------|-------------|
---------------------|---------------|-------------|

----

Chorus:
       F                     Am
I will phone your mother and ask her
   F             E
If I could marry you


Repeat verse 1:
       F            G               Am
I will stay by your side now and forever,
       F           G               Am
I will always only be in love with you.
 

Repeat verse 2:
      F             G                 Am 
Is it true when you say that you love me?
          F         G       Am
And is it true that I'll go on?


Instrumental (2x verse chords)


Outro: 
e-a Am Asus2 Am Asus2 Am Am Asus2 Am (2x) Am


Duration Legend
---------------
W - whole
H - half
Q - quarter
E - 8th
. - note dotted


Tablature Legend
----------------
L - tied note
x - dead note





Comments


Popular Hangmen tabs & chords
I Will Stay Chords
Russian Roulette Chords
What A Girl Cant Do Chords
Downtown Intro Tabs
I Will Stay Ukulele
Russian Roulette Ukulele
What A Girl Cant Do Ukulele


Song lyrics



↑ Back to top | Tablatures and chords are parodies/interpretations of the original songs. You may use it for private study, scholarship, research or language learning purposes only
© 2014 AZChords.com Contact us | Privacy policy | DMCA | Add/correct tabs | Request tabs | Top 50 tabs