» » »

Talking Hotel Arbat Blues Tabs (ver.1)

Artists:  A B C D E F G H I J K L M N O P Q R S T U V W X Y Z # 

Talking Hotel Arbat Blues Tabs (ver.1)

Handsome Furs
Rating:
5/5 (1 vote)

Tabs too difficult? Try these video lessons and learn fast.
                

Tuning:  drop D (Dan plays all their songs in 
dGCFAD, but this song is actually kind of easier
in drop D)


"We were standing in the center..."
E|-------------------------------------------|
B|-3\1-1-1-1-1-1-1-1-------------------------|
G|-3\2-2-2-2-2-2-2-2-------------------------|
D|-3\3-3-3-3-3-3-3-3-------------------------|
A|---3-3-3-3-3-3-3-3-------------------------|
d|-------------------------------------------|

"I don't know but I've been told..."
|----------------------------------------------|
|----------------------------------------------|
|----------------------------------------------|
|----------------------------------------------|
|-88888888-3333-0000-88888888-1212121212121212-|
|-88888888-3333-0000-88888888-1212121212121212-|

[high gain, lots of reverb/echo]
|------------------------------------------|
|-18~~~~~~---------------------------------|
|----------14~~12-12h14~~~-10-12-14~-------|
|------------------------------------12~~~~|
|------------------------------------------|
|------------------------------------------|

"There was a guy who came in from the cold..."
|------------------------------------------|
|------------------------------------------|
|------------------------------------------|
|------------------------------------------|
|------------------------------------------|
|-8~~~~~~~-3~~~-0~~~-8~~~~~~~-12~~~~~~~----|


|-------------------------------------------------|
|-18~~~~~~----------------------------------------|
|----------14~~12-12h14~~~-10-12-14~--------------|
|------------------------------------12-10-12-----|
|-----------------------------------------------8-|
|-------------------------------------------------|
then immediately
|------------------------------------------|
|-1----1----1----1-1-----------------------|
|-2----2----2----2-2-----------------------|
|-3----3----3----3-3-----------------------|
|-3----3----3----3-3-----------------------|
|------------------------------------------|
then
|------------------------------------------------|
|------------------------------------------------|
|------------------------------------------------|
|-------------3-----------------------3-3-3-3h55-|
|-----0-1-3-5---5-3-5-3-1-----0-1-3-5------------|
|-3-5---------------------3-5--------------------|

|------------------------------------------|
|-11111111---18~~~~~~~~~~~~~~--------------|
|-22222222---------------------------------|
|-33333333---------------------------------|  x 4
|-33333333---------------------------------|
|------------------------------------------|

|------------------------------------------|
|-3~~~~~~~~-1~~~~-------3~~~~~~~--7~~~~~~~-|
|-3~~~~~~~~-2~~~~-------3~~~~~~~--7~~~~~~~-|
|-3~~~~~~~~-3~~~~-0~~~~-3~~~~~~~--7~~~~~~~-|
|-----------3~~~~-0~~~~--------------------|
|-----------------0~~~~--------------------|
            
Tabs too difficult? Try these video lessons and learn fast.


comments powered by Disqus
↑ Back to top | Tablatures and chords are parodies/interpretations of the original songs. You may use it for private study, scholarship, research or language learning purposes only