» » »

Handsome Devil, I Fall Down Tabs (ver.1)

Artists:  A B C D E F G H I J K L M N O P Q R S T U V W X Y Z # 

I Fall Down Tabs (ver.1)

Handsome Devil Tabs
Rating:
4/5 (1 vote)
I Fall Down lessons Tabs too difficult? Try these video lessons and learn fast
                                         HANDSOME DEVIL
                          I FALL DOWN


STANDARD TUNING
EADGBe


--------------------------------------------------------------------|
--------------------------------------------------------------------|
-----------5-5-5-5---------7-7-7-7---------5-5-5-5---------7-7-7-7--|
---5-5-5-5-5-5-5-5-7-7-7-7-7-7-7-7-5-5-5-5-5-5-5-5-7-7-7-7-7-7-7-7--|
---5-5-5-5-3-3-3-3-7-7-7-7-5-5-5-5-5-5-5-5-3-3-3-3-7-7-7-7-5-5-5-5--|
---3-3-3-3---------5-5-5-5---------3-3-3-3---------5-5-5-5----------|

--------------------------------------------|
--------------------------------------------|
--------------------------------------------|
------4/5--5------7--7----4/5--5------7-----|
---5--2/3--3-7--7-5--5-5--2/3--3-7--7-5-----|
---3---------5--5------3---------5--5-------|

solo
--------------7-8-7-------------7-8-7---------------7-8-7--------------|
-------------------10----------------10------------------10------------|
-----------------------------------------------------------------------|
---9p7h9---------------9ph7h9-------------9p7h9--------------9p7-------|
---------10-7-----------------10-7--------------10-7-------------10-7--|
-----------------------------------------------------------------------|

those are the main parts to the song
peace
            

comments powered by Disqus
↑ Back to top | Handsome Devil Tabs for I Fall Down. Lyrics for acoustic guitar and electric guitar. Tablatures and chords are parodies/interpretations of the original songs. You may use it for private study, scholarship, research or language learning purposes only