» » »

The Tenacity Of Genes And Dreams Bass tabs (ver.1)

Artists:  A B C D E F G H I J K L M N O P Q R S T U V W X Y Z # 

The Tenacity Of Genes And Dreams Bass tabs (ver.1)

Hamm Stu
Rating:
0/5 (0 votes)

Hard to play? Try these video lessons and learn fast.
                Stuart Hamm - "The Tenacity of Genes and Dreams"


Bass
                                                                                
G||--------||---------0h-5--4--------0h-4--4--|-----------0--5-----------5--5--|
D||--------||*-----2--------------2-----------|-----0h-5-----------0h-5--------|
A||--0h-2--||*--3--------------3--------------|--5--------------5--------------|
E||--------||---------------------------------|--------------------------------|


                                                                   
--------0-----7--------0--7--7--|--------0h-7--14t-7h-0--7--9t----|
-----5-----5--------5-----------|-----5------------------------9t-|
--7--------------7--------------|---------------------------------|
--------------------------------|--0------------------------------|


                                                                  
--------0h-5--4--------0h-4--4--|-----------0--5-----------5--5--|
-----2--------------2-----------|-----0h-5-----------0h-5--------|
--3--------------3--------------|--5--------------5--------------|
--------------------------------|--------------------------------|


                                                                        
------------------------------------|----------------------------------|
-----7/9-------7------5------4------|--2h-4h2h0-----0h-2--2h-4h2-------|
-----------10t----10t----10t----10t-|------------2---------------0h-2--|
--0---------------------------------|----------------------------------|


                                                                  
--------0-----4--------0h-4--4--|-----------0--5-----------5--5--|
-----2-----5--------2-----------|-----0h-5-----------0h-5--------|
--3--------------3--------------|--5--------------5--------------|
--------------------------------|--------------------------------|


                                                                   
--------0-----7--------0--7--7--|--------0h-7--14t-7h-0h-7--9t----|
-----5-----5--------5-----------|-----5------------------------9t-|
--7--------------7--------------|---------------------------------|
--------------------------------|--0------------------------------|


                                                                  
--------0-----4--------0h-4--4--|-----------0--5-----------5--5--|
-----2-----5--------2-----------|-----0h-5-----------4h-5--------|
--3--------------3--------------|--5--------------5--------------|
--------------------------------|--------------------------------|


                                                                   
--------------0-------------0--|--------------0------------------||
-----0h-4/-5-----0h-4/-5-------|-----0h-4/-5-----0--4/-5--------*||
-------------------------------|--------------------------0--2--*||
--3----------------------------|--3------------------------------||
            
Hard to play? Try these video lessons and learn fast. | Correct




comments powered by Disqus
↑ Back to top | Tablatures and chords are parodies/interpretations of the original songs. You may use it for private study, scholarship, research or language learning purposes only