» » »

Hamm Stu, Terminal Beach Bass tabs (ver.2)

Artists:  A B C D E F G H I J K L M N O P Q R S T U V W X Y Z # 

Terminal Beach Bass tabs (ver.2)

Hamm Stu Tabs
 Rating:
4/5 (4 votes)
Terminal Beach lessons Tabs too difficult? Try these video lessons and learn fast
1
                "Terminal Beach"
					By Stu Hamm
						Tablature by Zene

Intro
    RT       RT         RT
    RT       RT         RT
    LT       LT         LT
    LT       LT         LT       RT   RT RT        LT LT LT RT RT
    w        H          w        q    s  e  Q      h  q  q  q  h      
G---21-------21---------19-------------------------------------21/----
D---21-------19---------17-------19h--21p19p17-----18-------19--------
A---14-------16---------17----------------------------16--------------
E---12-------14---------15-------------------------------17-----------
                                                                      
    
    q        h  q  q  q    h    w                                     
G---24-------21--------------------||---------------------------------
D------------17------------19---20-||---------------------------------
A---------------15----15-----------||---------------------------------
E------------------15------15---14-||---------------------------------
                                                                      

        h      q  h    H      s  s  s  Q  Q                           
G-------21-----21------19--------------------|------------------------
D-------21-----20/19---17-----------17-19p17-|------------------------
A-------14-----16------17--------17----------|------------------------
E-------12-----14------15-----15-------------|------------------------
                                                                      
This sets up the verses
      e  e  e  e  e  e    e  e  e  s  e   e    e  E                   
G-----------21-------19------------------------------|----------------
D-----------21-------19---------19-20-19^-17---19-17-|----------------
A--------14-------16---------17-19/20\19-p17---19p17-|----------------
E-----12-------14---------15-------------------------|----------------
                                                                      

    e  e  e  e  e  e  e  e  e  s  e   e    E                          
G---------21-------19-------------------------|-----------------------
D---------21-------19-------19-20-19^-17---19-|-----------------------
A------14-------16-------17-19/20\19-p17---19-|-----------------------
E---12-------14-------15----------------------|-----------------------
                                                                      
Verses
      s  s  s  s  s  s  s  s  s  s  s  s  s  s  s  s                  
G-----------------------------------------------------|---------------
D-----------19-------18----19-------21----19-------18-|---------------
A--------16----19-------------19-------------19-16----|---------------
E-----14----------14----14-------14----14-------------|---------------
                                                                      

      s  s  s  s  s  s  s  s  s  s  s  s  s  s  s  s                  
G-----------------------------------------------------|---------------
D-----------19-------18----19-------21----19-------18-|---------------
A--------16----19-------------19-------------19-16----|---------------
E-----14----------14----14-------14----14-------------|---------------
                                                                      

    s  s  s  s  s  s  s  s  s  s  s  s  s  s  s  s                    
G---------------------------------------------------|-----------------
D---------19-------18----19-------21----19-------18-|-----------------
A------16----19-------------19-------------19-16----|-----------------
E---14----------14----14-------14----14-------------|-----------------
                                                                      

    s  s  s  s  s  s  s  s  s  s  s  s  s  s  s  s                    
G---------------------------------------------------|-----------------
D---------19-------18----19-------21----19-------18-|-----------------
A------16----19-------------19-------------19-16----|-----------------
E---14----------14----14-------14----14-------------|-----------------
                                                                      

    s  s  s  s  s  s  s  s  s  s  s  s  s  s  s  s                    
G---------------------------------------------------|-----------------
D---------19-------17----19-------21----19-------17-|-----------------
A------17----19-------------19-------------19-17----|-----------------
E---15----------15----15-------15----15-------------|-----------------
                                                                      

    s  s  s  s  s  s  s  s  s  s  s  s  s  s  s  s                    
G---------------------------------------------------|-----------------
D---------19-------17----19-------21----19-------17-|-----------------
A------17----19-------------19-------------19-17----|-----------------
E---15----------15----15-------15----15-------------|-----------------
                                                                      

    s  s  s  s  s  s  s  s  s  s  s  s  s  s  s  s                    
G---------------------------------------------------|-----------------
D---------19-------17----19-------21----19-------17-|-----------------
A------17----19-------------19-------------19-17----|-----------------
E---15----------15----15-------15----15-------------|-----------------
                                                                      

    s  s  s  s  s  s  s  s  s  s  s  s  s  s  s  s  s  s  s  s        
G---------------------------------------------------------------|-----
D------19-------17----19-------21----19-------17----19-------21-|-----
A---------19-------------19-------------19-------------19-------|-----
E---16-------16----16-------16----16-------16----16-------16----|-----
                                                                      

    s  s  s  s  s  s  s  s  s  s  E                                   
G------------------------------------||-------------------------------
D------19-------17----19-------21----||-------------------------------
A---------19-------------19----------||-------------------------------
E---16-------16----16-------16----16-||-------------------------------

The ending is the same as the intro.



	This song is played using two hand tapping. The note values are listed above the tabs.
        There is not a note plucked in it.  I didn't bother to write down which hand and 
	finger does what. But just to get you started the first chords
	on the intro are played using your left hand to tap the top two 
	strings and the right hand to tap the bottom two.  If you have any 
	to answer them the best I can.  This peice is far from exact.  I
	love Stu Hamm's ability and playing.  He is by far my favorite 
	player and this song has really opened the doors to what is 	
	possible on the bass guitar.  -Zene
            
Submit corrections

comments powered by Disqus
↑ Back to top | Hamm Stu Bass for Terminal Beach. Lyrics for acoustic guitar and electric guitar. 1 Tablatures and chords are parodies/interpretations of the original songs. You may use it for private study, scholarship, research or language learning purposes only