>
 >
Unchained

Unchained Guitar Tabs

Hammerfall - Unchained chords, tabs, tablatures, lyrics

Guitar lessons | Add/correct | Request | Top 50 tabs Artists:  A B C D E F G H I J K L M N O P Q R S T U V W X Y Z 0-9

Unchained Guitar Tabs – Hammerfall

CD, Sheet music, Poster

Do you like Unchained? Share with your friends now
Tabs
HAMMERFALL - UNCHAINED
                              From "Glory to the Brave"
                                    Version 1.0            



For Questions, Comments, Corrections, Requests

Check out The Reaper's Metal Tablature Archive at

.  - palm mute                          /  - slide up to
\  - slide down to                      ~  - vibrato
"  - tremelo picking                    () - ghost note
p  - pull off                           h  - hammer-on 
tr - trill notes                        fb - full bend (1step)
 - harmonic

Hammerfall - Unchained

Tuned 1/2 step down (EbAbDbGbBbEb)

Riff A
|----------------------------------------|
|----------------------------------------|
|----------------------------------------|Gtr I
|-2-------10----7----7----7h9------------|
|-2-10-77----77---77---77----------------|
|-0--------------------------------------|
|      ..    ..   ..   ..                |
|----------------------------------------|
|----------------------------------------|
|----------------------------------------|Gtr II
|-2--------------------------------------|
|-2--------------------------------------|
|-0--------------------------------------|


|----------------------------------------|
|----------------------------------------|
|----------------------------------------|Gtr I
|-2-------9----10-9-7----9-7-------------|
|-2-10-77---77--------10-----10-9--------|
|-0--------------------------------------|
|      ..   ..                           |
|----------------------------------------|
|----------------------------------------|
|-----------------------------------------|Gtr II
|-2------------10-9-7----9-7-------------|
|-2-------------------10-----10-9--------|
|-0--------------------------------------|


|----------------------------------------|
|----------------------------------------|
|----------------------------------------|Gtr I
|-2-------10----7----7----7h9------------|
|-2-10-77----77---77---77----------------|
|-0--------------------------------------|
|      ..    ..   ..   ..                |
|----------------------------------------|
|----------------------------------------|
|----------------------------------------|
|-2--------------------------------------|
|-2--------------------------------------|
|-0--------------------------------------|


|----------------------------------------|
|----------------------------------------|
|------------------7-6-------------------|Gtr I
|-2-------9----5-4-5-4-------------------|
|-2-10-77---77-3-2-----------------------|
|-0--------------------------------------|
|      ..   ..                           |
|----------------------------------------|
|-----------------7-6--4-----------------|
|-------------5-4-5-4--2-----------------|Gtr II
|-2-----------3-2------------------------|
|-2--------------------------------------|
|-0--------------------------------------|

Riff A - 2x

Riff B
|----------------------------------------|
|----------------------------------------|
|----------------------------------------|Gtrs I
|-2-------10----7----7----7h9------------|  & II
|-2-10-77----77---77---77----------------|
|-0--------------------------------------|
       ..    ..   ..   ..

|----------------------------------------|
|----------------------------------------|
|----------------------------------------|Gtrs I
|-2-------9----10-9-7----9-7-------------|  & II
|-2-10-77---77--------10-----10-9--------|
|-0--------------------------------------|
       ..   ..
|----------------------------------------|
|----------------------------------------|
|----------------------------------------|Gtrs I
|-2-------10----7----7----7h9------------|  & II
|-2-10-77----77---77---77----------------|
|-0--------------------------------------|
       ..    ..   ..   ..

|----------------------------------------|
|----------------------------------------|
|------------------7-6-------------------|Gtrs I
|-2-------9----5-4-5-4-9-----------------|  & II
|-2-10-77---77-3-2-----7-----------------|
|-0--------------------------------------|
       ..   ..

Riff B - 2x

Riff C
|----------------------------------------|
|----------------------------------------|
|----------------------------------------|Gtrs I
|-9--------------9--------5-12-----------|  & II
|-7-777777777777-7-777777-3-10-----------|
|----------------------------------------|
    ............   ......
                            
|----------------------------------------|
|----------------------------------------|
|----------------------------------------|Gtrs I
|-9----------------5-7-12-11-------------|  & II
|-7-77777777777777-3-5-10-9--------------|
|----------------------------------------|
    ..............

Riff C - 2x

Riff D
|----------------------------------------|
|----------------------------------------|
|----------------------------------------|Gtrs I
|-5----5-4-2-------4---------------------|  & II
|-3----3-2-0-00000-2---------------------|
|--------------------2~------------------|
             .....

Riff D - 1x

Riff B.1
|----------------------------------------|
|----------------------------------------|
|--------5-------------------------------|Gtrs I
|-2-5---------7----7----7h9--------------|  & II
|-2---77---77---77---77------------------|
|-0--------------------------------------|
      ..   ..   ..   ..

|----------------------------------------|
|----------------------------------------|
|--------4--------9-8--------------------|Gtrs I
|-2-5---------5-4------------------------|  & II
|-2---77---77-3-2------------------------|
|-0--------------------------------------|
      ..   ..

Riff B.1 - 1x
Riff C - 2x
Riff D - 1x

Riff E
|----------------------------------------|
|----------------------------------------|
|----------------------------------------|Gtrs I
|---9----7-5----7----9--------5-7--------|  & II
|-7-7----5-3----5----7-777777-3-5--------|
|----------------------------------------|
                       ......

|----------------------------------------|
|----------------------------------------|
|----------------------------------------|Gtrs I
|---9----7-5----7----9--------5-4--------|  & II
|-7-7----5-3----5----7-777777-3-2--------|
|----------------------------------------|
                       ......

Riff E - 1x
Riff B - 2x
Riff C - 2x
Riff D - 1x
Riff E - 2x

Riff F
|----------------------------------------|
|----------------------------------------|
|--------5-------------------------------|Gtr I
|-2-5---------5-7------------------------|
|-2---77---77-3-5------------------------|
|-0--------------------------------------|
|     ..   ..                            |
|----------------------------------------|
|----------------------------------------|
|----------------------------------------|Gtr II
|-2-----------5-7------------------------|
|-2-----------3-5------------------------|
|-0--------------------------------------|


|----------------------------------------|
|----------------------------------------|
|---------5------------------------------|Gtr I
|----5---------5-4-----------------------|
|-77---77---77-3-2-----------------------|
|----------------------------------------|
| ..   ..   ..                           |
|----------------------------------------|
|----------------------------------------|
|----------------------------------------|
|--------------5-4-----------------------|
|--------------3-2-----------------------|
|----------------------------------------|

Riff F - 1 1/2 times then
|----------------------------------------|
|----------------------------------------|
|---------5------------------------------|
|----5--------5-4------------------------|
|-77---77--77-3-2-5-4-2------------------|
|-----------------3-2-0------------------|
  ..   ..  ..

Riff G
|---|--------------------------------------|
|---|--------------------------------------|
|---|--------------------------------------|Gtrs I
|-7-|-7-7-----10----8----5-7-----5----5----|  & II
|-5-|-5-5-555-5--55-5-55-5-5-555-3-33-3-33-|
|---|--------------------------------------|
          ...    ..   ..     ...   ..   ..

Riff G - 2x

Riff H
|----------------------------------------|
|----------------------------------------|
|----------------------------------------|Gtrs I
|-9-9-----10-10-----9-9-----12----7------|  & II
|-7-7-----7--7------7-7-----10----5------|
|-----000-------000-----000----00---00---| 
      ...       ...     ...    ..

|----------------------------------------|
|----------------------------------------|
|----------------------------------------|Gtrs I
|-9-9-----10-10-----9-9--------7-9-10-9-7|  & II
|-7-7-----7--7------7-7-----10-----------|
|-----000-------000-----000--------------|
      ...       ...     ...

Riff H - 1 1/2 times then H.1

Riff H.1
|-----------------------------------------------|
|-----------------------------------------------|
|--------------------------------------7-9-7----|Gtrs I
|-9-9-----10-10--------7-9-10-9-7-9-10-------10-|  & II
|-7-7-----7--7------10--------------------------|
|-----000-------000-----------------------------|
      ...       ...

Fill 1
|---------------|
|---------------|
|---------------|
|-9----9---9~-9-|
|---10---9----7-|
|---------------|

Riff I.1 (It was too much of a hassle getting the timing between the guitars, so I
          didn't.
|----------------------------------------|
|----------------------------------------|
|----------------------------------------|Gtr I
|-7-7-----8----8----7-7-----5----5-------|
|-5-5-555-5-55-5-55-5-5-555-3-33-3-33----|
|----------------------------------------|

|----------------------------------------|
|-10-------10-------11-------11----------|
|----10-------10-------12-------12-------|Gtr II
|-------12-------12-------12-------12----|
|----------------------------------------|
|----------------------------------------|

|----------------------------------------|
|-10-------10-------8--------6-8---------|
|----10-------10------9----9-------------|Gtr II
|-------12-------12-----10---------------|
|----------------------------------------|
|----------------------------------------|

Riff I.1 - 2x

Riff I.2 (The first half of Riff H is played under this)
|----------------------------------------|
|-12-------12-------13-------13----------|
|----12-------12-------14-------14-------|Gtr II
|-------14-------14-------14-------14----|
|----------------------------------------|
|----------------------------------------|

|----------------------------------------|
|-12-------12-------10----------8-10-----|
|----12-------12-------11----11----------|Gtr II
|-------14-------14-------12-------------|
|----------------------------------------|
|----------------------------------------|

Riff I.2 - 2x

Solo Riff 1
|----------------------------------------|
|----------------------------------------|
|-------------3--------------------------|
|-----5-----8-1-3------------------------|
|-333-3-666-6---1------------------------|
|----------------------------------------|
  ...   ...

Solo Riff 2
|----------------------------------------|
|----------------------------------------|
|----------------------------------------|
|-----------3-5-3------------------------|
|-----5-111-1-3-1------------------------|
|-333-3----------------------------------|
  ...   ...

Solo
|-------------------------------------------------------------|
|-------------------------------------------------------------|
|-------------------------------------------------------------|
|----------------------------------------8--------------------|
|-10~--10/11-11~--8~--8h10-10~--11-10-11---11-10-8/10-10------|
|--------------------------------------------------------11---|

|-------------------------------------------------------------|
|-------------------------------------------------------------|
|----------------------------------15~-12~--13-12-13-15-13-15-|
|---------------------10-8~-8~/15~----------------------------|
|-8h10-8h10---------6-----------------------------------------|
|-----------11-9-8--------------------------------------------|

|----------------------------------------|
|----------------------------15~hold\----|
|-17-15-17-19-17-15-12-15-12-------------|
|----------------------------------------|
|----------------------------------------|
|----------------------------------------|

Solo Riff 1 - 3x
Solo Riff 2 - 1x

Riff G - 2x
Riff H - 1 1/2 times then H.1
Fill 1

Riff J
|----------------------------------------|
|----------------------------------------|
|----------------------------------------|Gtrs I
|-2-----------------------3----3-4-------|  & II
|-2----------------7-5----1----3-2-------|
|-0-00000000000000-5-3-00---00-1-0-------|
    ..............     ..   ..

|----------------------------------------|
|----------------------------------------|
|----------------------------------------|Gtrs I
|-2-----------------------3-3-3----------|  & II
|-2----------------7-5----1-1-1----------|
|-0-00000000000000-5-3-00----------------|

Riff J - 1x

Played under Solo 4x
|----------------------------------------|
|----------------------------------------|
|----------------------------------------|
|-2--------------2------5----------------|
|-0-000000000000-0-0000-3-00-5-7-8-------|
|----------------------------3-5-6-------|

(Sorry, no second solo, it'll be added soon)

Riff E - 2x
Riff B - 2x but end on



|----------------------------------------|
|----------------------------------------|
|----------------------------------------|Gtr I
|-10-9-7----9-7--------------------------|
|--------10-----10-9---------------------|
|----------------------------------------|
|                                        |
|----------------------------------------|
|----------------------------------------|
|----------------------------------------|Gtr II
|--------------------10-9-7----9-7-------|
|---------------------------10-----10-9--|
|----------------------------------------|


|----------------------------------------|
|----------------------------------------|
|----------------------------------------|Gtr I
|-10-9-7-----9-7-------------------------|
|--------10------10-9-7-7-7\-------------|
|----------------------------------------|
|                                        |
|----------------------------------------|
|----------------------------------------|
|-10-9-7----9-7--------------------------|Gtr II
|--------10-----10-9---------------------|
|--------------------7-7-7\--------------|
|----------------------------------------|





Comments


Popular Hammerfall tabs & chords
Dreams Come True Bass Tabs
Glory To The Brave Bass Tabs
Remember Yesterday 2 Bass Tabs
Any Means Necessary 1 Tabs
Eternal Dark Tabs
Heeding The Call Tabs
Legacy Of Kings Tabs
Restless Soul Intro Tabs
Stronger Than All Tabs
Never Ever Ukulele


Song lyrics



↑ Back to top | Tablatures and chords are parodies/interpretations of the original songs. You may use it for private study, scholarship, research or language learning purposes only
© 2014 AZChords.com Contact us | Privacy policy | DMCA | Add/correct tabs | Request tabs | Top 50 tabs