>
 >
Steel Meets Steel

Steel Meets Steel Bass Tabs

Hammerfall - Steel Meets Steel chords, tabs, tablatures, lyrics

Guitar lessons | Add/correct | Request | Top 50 tabs Artists:  A B C D E F G H I J K L M N O P Q R S T U V W X Y Z 0-9

Steel Meets Steel Bass Tabs – Hammerfall

CD, Sheet music, Poster

Do you like Steel Meets Steel? Share with your friends now
Bass TabsBass Tabs v2Tabs
Tune Down

F#||------|------|------|------|----------------------|------------------------|
C#||------|------|------|------|----------------------|------------------------|
G#||------|------|------|------|----5----1--3--5------|----5----1--3--5--------|
D#||------|------|------|------|----------------------|------------------6--8--|


                                                                    
--------------------------------|----------------------------------|
--------------------------------|----------------------------------|
----5-5-5-5-5-5-5-5-5-5-5-5-5-5-|--5-5-5-5-5-5-5-5-5-5-5-5---------|
--------------------------------|--------------------------6-6-8-8-|


                                                                      
----------------------------------|----------------------------------|
----------------------------------|----------------------------------|
--5-5-5-5-5-5-5-5-5-5-5-5-5-5-5-5-|--5-5-5-5-5-5-5-5-5-5-5-5---------|
----------------------------------|--------------------------6-6-8-8-|


                                                              
--------------------|--------------------|-------------------|
--------------------|--------------------|-------------------|
--5--------------3--|--5--------------1--|--3----------------|
--------------------|--------------------|-------------------|


                                                        
--------------------|----------------------------------|
--------------------|----------------------------------|
--1--------3--------|--5-5-5-5-5-5-5-5-5-5-5-5-5-5-5-5-|
--------------------|----------------------------------|


                                                                      
----------------------------------|----------------------------------|
----------------------------------|----------------------------------|
--5-5-5-5-5-5-5-5-5-5-5-5---------|--5-5-5-5-5-5-5-5-5-5-5-5-5-5-5-5-|
--------------------------6-6-8-8-|----------------------------------|


                                                                             
----------------------------------|--------------------|--------------------|
----------------------------------|--------------------|--------------------|
--5-5-5-5-5-5-5-5-5-5-5-5---------|--5--------------3--|--5--------------1--|
--------------------------6-6-8-8-|--------------------|--------------------|


                                                                         
-------------------|--------------------|-------------------------------|
-------------------|--------------------|-------------------------------|
--3----------------|--1--------3--------|--7--7-7-7-7-5--7--7-7-7-7-7-7-|
-------------------|--------------------|-------------------------------|


                                                                   
----------------------------------|-------------------------------|
----------------------------------|-------------------------------|
--3-3-3-3-3-3-3-3-5-5-5-5-5-5-5-5-|--7--7-7-7-7-5--7--7-7-7-7-7-7-|
----------------------------------|-------------------------------|


                                                                   
----------------------------------|-------------------------------|
----------------------------------|-------------------------------|
--3-3-3-3-3-3-3-3---------5-5-5-5-|--7--7-7-7-7-5--7--7-7-7-7-7-7-|
------------------5-5-5-5---------|-------------------------------|


                                                                   
----------------------------------|-------------------------------|
----------------------------------|-------------------------------|
--3-3-3-3-3-3-3-3-5-5-5-5-5-5-5-5-|--7--7-7-7-7-5--7--7-7-7-7-7-7-|
----------------------------------|-------------------------------|


                                                          
----------------------------------|----------------------|
----------------------------------|----------------------|
--3-3-3-3-3-3-3-3---------5-5-5-5-|--3------------3------|
------------------5-5-5-5---------|---------4--6---------|


                                                            
------------------------|----------------------------------|
------------------------|----------------------------------|
----3----------3--------|--5-5-5-5-5-5-5-5-5-5-5-5-5-5-5-5-|
---------4--6-----4--6--|----------------------------------|


                                                                      
----------------------------------|----------------------------------|
----------------------------------|----------------------------------|
--5-5-5-5-5-5-5-5-5-5-5-5---------|--5-5-5-5-5-5-5-5-5-5-5-5-5-5-5-5-|
--------------------------6-6-8-8-|----------------------------------|


                                                                             
----------------------------------|--------------------|--------------------|
----------------------------------|--------------------|--------------------|
--5-5-5-5-5-5-5-5-5-5-5-5---------|--5--------------3--|--5--------------1--|
--------------------------6-6-8-8-|--------------------|--------------------|


                                                                            
-------------------|--------------------|----------------------------------|
-------------------|--------------------|----------------------------------|
--3----------------|--1--------3--------|--5-5-5-5-5-5-5-5-5-5-5-5-5-5-5-5-|
-------------------|--------------------|----------------------------------|


                                                                      
----------------------------------|----------------------------------|
----------------------------------|----------------------------------|
--5-5-5-5-5-5-5-5-5-5-5-5---------|--5-5-5-5-5-5-5-5-5-5-5-5-5-5-5-5-|
--------------------------6-6-8-8-|----------------------------------|


                                                                             
----------------------------------|--------------------|--------------------|
----------------------------------|--------------------|--------------------|
--5-5-5-5-5-5-5-5-5-5-5-5---------|--5--------------3--|--5--------------1--|
--------------------------6-6-8-8-|--------------------|--------------------|


                                                                         
-------------------|--------------------|-------------------------------|
-------------------|--------------------|-------------------------------|
--3----------------|--1--------3--------|--7--7-7-7-7-5--7--7-7-7-7-7-7-|
-------------------|--------------------|-------------------------------|


                                                                   
----------------------------------|-------------------------------|
----------------------------------|-------------------------------|
--3-3-3-3-3-3-3-3-5-5-5-5-5-5-5-5-|--7--7-7-7-7-5--7--7-7-7-7-7-7-|
----------------------------------|-------------------------------|


                                                                   
----------------------------------|-------------------------------|
----------------------------------|-------------------------------|
--3-3-3-3-3-3-3-3---------5-5-5-5-|--7--7-7-7-7-5--7--7-7-7-7-7-7-|
------------------5-5-5-5---------|-------------------------------|


                                                                   
----------------------------------|-------------------------------|
----------------------------------|-------------------------------|
--3-3-3-3-3-3-3-3-5-5-5-5-5-5-5-5-|--7--7-7-7-7-5--7--7-7-7-7-7-7-|
----------------------------------|-------------------------------|


                                                                         
----------------------------------|-------------------------|-----------|
----------------------------------|-------------------------|-----------|
--3-3-3-3-3-3-3-3---------5-5-5-5-|--3-3-3--5-5-5--7--------|--7--------|
------------------5-5-5-5---------|-------------------------|-----------|


                                                                    
---------------------------------|---------------------------------|
---------------------------------|---------------------------------|
--2--2-2-2-2-2-2-2-2-2-2-2-2-2-2-|--0--0-0-0-0-0-0-0-0-0-0-0-0-0-0-|
---------------------------------|---------------------------------|


                                                             
---------------------------------|--------------------------|
---------------------------------|--------------------------|
---------------------------------|--------------------------|
--3--3-3-3-3-3-3-3-3-3-3-3-3-3-3-|--0--0-0-0----2--2-2-2----|


                                                                    
---------------------------------|---------------------------------|
---------------------------------|---------------------------------|
--2--2-2-2-2-2-2-2-2-2-2-2-2-2-2-|--0--0-0-0-0-0-0-0-0-0-0-0-0-0-0-|
---------------------------------|---------------------------------|


                                                                     
---------------------------------|----------------------------------|
---------------------------------|----------------------------------|
---------------------------------|----------------------------------|
--3--3-3-3-3-3-3-3-3-3-3-3-3-3-3-|--0-0-0-0-0-0-0-0-2-2-2-2-2-2-2-2-|


                                                            
-------------------|-------------------|-------------------|
-------------------|-------------------|-------------------|
--5----------------|--3----------------|--1----------------|
-------------------|-------------------|-------------------|


                                                       
--------------------|---------------------------------|
--------------------|---------------------------------|
--------------------|--5--5-5-5-5-5-5-5-5-5-5-5-5-5-5-|
--3--------5--------|---------------------------------|


                                                                    
---------------------------------|---------------------------------|
---------------------------------|---------------------------------|
--3--3-3-3-3-3-3-3-3-3-3-3-3-3-3-|--1--1-1-1-1-1-1-1-1-1-1-1-1-1-1-|
---------------------------------|---------------------------------|


                                                             
----------------------------|-------------------------------|
----------------------------|-------------------------------|
----------------------------|--7--7-7-7--7-7-7--7-7-7-7-7-7-|
--1-1-1-1-1----3-3-3-3-3----|-------------------------------|


                                                                
-------------------------------|-------------------------------|
-------------------------------|-------------------------------|
--5--5-5-5--5-5-5--5-5-5-5-5-5-|--3--3-3-3--3-3-3--3-3-3-3-3-3-|
-------------------------------|-------------------------------|


                                                             
----------------------------|-------------------------------|
----------------------------|-------------------------------|
--0-0-0-0-0----2-2-2-2-2----|--7--7-7-7--7-7-7--7-7-7-7-7-7-|
----------------------------|-------------------------------|


                                                                
-------------------------------|-------------------------------|
-------------------------------|-------------------------------|
--5--5-5-5--5-5-5--5-5-5-5-5-5-|--3--3-3-3--3-3-3--3-3-3-3-3-3-|
-------------------------------|-------------------------------|


                                                                            
----------------------------|-------------------------|--------------------|
----------------------------|-------------------------|--------------------|
--0-0-0-0-0----2-2-2-2-2----|--3-3-3--5-5-5--7--------|--3--------5--------|
----------------------------|-------------------------|--------------------|


                                                                
---------------------|--------------------|--------------------|
---------------------|--------------------|--------------------|
--7------5--7--------|--3--------5--------|-----------7--------|
---------------------|--------------------|--0-----------------|


                                                                            
--------------------|---------------------|--------------------|-----------|
--------------------|---------------------|--------------------|-----------|
--3--------5--------|--7------5--7--------|--3--------5--------|-----------|
--------------------|---------------------|--------------------|--0--------|


                                                                      
----------------------------------|----------------------------------|
----------------------------------|----------------------------------|
--5-5-5-5-5-5-5-5-5-5-5-5-5-5-5-5-|--5-5-5-5-5-5-5-5-5-5-5-5-5-5-5-5-|
----------------------------------|----------------------------------|


                                                                      
----------------------------------|----------------------------------|
----------------------------------|----------------------------------|
--7-7-7-7-7-7-7-7-7-7-7-7-7-7-7-7-|--7-7-7-7-7-7-7-7-7-7-7-7-7-7-7-7-|
----------------------------------|----------------------------------|


                                                                      
----------------------------------|----------------------------------|
----------------------------------|----------------------------------|
--3-3-3-3-3-3-3-3-3-3-3-3-3-3-3-3-|--3-3-3-3-3-3-3-3-3-3-3-3-3-3-3-3-|
----------------------------------|----------------------------------|


                                                                      
----------------------------------|----------------------------------|
----------------------------------|----------------------------------|
--5-5-5-5-5-5-5-5-5-5-5-5-5-5-5-5-|--5-5-5-5-5-5-5-5-5-5-5-5---------|
----------------------------------|--------------------------6-6-8-8-|


                                                                      
----------------------------------|----------------------------------|
----------------------------------|----------------------------------|
--5-5-5-5-5-5-5-5-5-5-5-5-5-5-5-5-|--5-5-5-5-5-5-5-5-5-5-5-5---------|
----------------------------------|--------------------------6-6-8-8-|


                                                              
--------------------|--------------------|-------------------|
--------------------|--------------------|-------------------|
--5--------------3--|--5--------------1--|--3----------------|
--------------------|--------------------|-------------------|


                                                               
--------------------|--------------------|--------------------|
--------------------|--------------------|--------------------|
--1--------3--------|--5--------------3--|--5--------------1--|
--------------------|--------------------|--------------------|


                                                                         
-------------------|--------------------|-------------------------------|
-------------------|--------------------|-------------------------------|
--3----------------|--1--------3--------|--7--7-7-7-7-5--7--7-7-7-7-7-7-|
-------------------|--------------------|-------------------------------|


                                                                   
----------------------------------|-------------------------------|
----------------------------------|-------------------------------|
--3-3-3-3-3-3-3-3-5-5-5-5-5-5-5-5-|--7--7-7-7-7-5--7--7-7-7-7-7-7-|
----------------------------------|-------------------------------|


                                                                   
----------------------------------|-------------------------------|
----------------------------------|-------------------------------|
--3-3-3-3-3-3-3-3---------5-5-5-5-|--7--7-7-7-7-5--7--7-7-7-7-7-7-|
------------------5-5-5-5---------|-------------------------------|


                                                                   
----------------------------------|-------------------------------|
----------------------------------|-------------------------------|
--3-3-3-3-3-3-3-3-5-5-5-5-5-5-5-5-|--7--7-7-7-7-7--7--7-7-7-7-7-7-|
----------------------------------|-------------------------------|


                                                                     
----------------------------------|---------------------------------|
----------------------------------|---------------------------------|
--3-3-3-3-3-3-3-3---------5-5-5-5-|---------------------------------|
------------------5-5-5-5---------|--0--0-0-0-0-0-0-0-0-0-0-0-0-0-0-|


                                                                    
---------------------------------|---------------------------------|
---------------------------------|---------------------------------|
---------------------------------|---------------------------------|
--3--3-3-3-3-3-3-3-3-3-3-3-3-3-3-|--5--5-5-5-5-5-5-5-5-5-5-5-5-5-5-|


                                                   
---------------------------------|----------------|
---------------------------------|----------------|
---------------------------------|--3-3-3--5-5-5--|
--7--7-7-7-7-7-7-7-7-7-7-7-7-7-7-|----------------|


                                                                    
---------------------------------|---------------------------------|
---------------------------------|---------------------------------|
---------------------------------|---------------------------------|
--0--0-0-0-0-0-0-0-0-0-0-0-0-0-0-|--3--3-3-3-3-3-3-3-3-3-3-3-3-3-3-|


                                                                    
---------------------------------|---------------------------------|
---------------------------------|---------------------------------|
---------------------------------|---------------------------------|
--5--5-5-5-5-5-5-5-5-5-5-5-5-5-5-|--7--7-7-7-7-7-7-7-7-7-7-7-7-7-7-|


                                        
----------------|---------------------||
----------------|---------------------||
--3-3-3--5-5-5--|--7------5--7--------||
----------------|---------------------||





Comments


Popular Hammerfall tabs & chords
Angel Of Mercy Bass Tabs
Glory To The Brave Chords
Crimson Thunder 1 Tabs
Keep The Flame Burning Tabs
Last Man Standing 1 Tabs
Legacy Of Kings Tabs
Steel Meets Steel Tabs
Templars Of Steel 1 Tabs
Titan Intro Tabs
Were Gonna Make It Tabs


Song lyrics



↑ Back to top | Tablatures and chords are parodies/interpretations of the original songs. You may use it for private study, scholarship, research or language learning purposes only
© 2014 AZChords.com Contact us | Privacy policy | DMCA | Add/correct tabs | Request tabs | Top 50 tabs