» » »

Riders Of The Storm Tabs (ver.1)

Artists:  A B C D E F G H I J K L M N O P Q R S T U V W X Y Z # 

Riders Of The Storm Tabs (ver.1)

Hammerfall
Rating:
0/5 (0 votes)

Tabs too difficult? Try these video lessons and learn fast.
                
pm = palmmute

Intro 2x

E||--------------------------------------------
B||--------------------------------------------
G||----------------------------------4---6-----
D||-1-1-1pm-1pm-4--------4-4---------4-4-6-----
A||-1-1-1pm-1pm-4-4-6----2-2-2pm-2pm-2-4-4-----
E||-------------2-4-6--------------------------

Verse

E||-----------------------------------------------------------------
B||-----------------------------------------------------------------
G||-------------------------------------------4---6--6---------6-6--
D||-1-1-1pm-1pm-4-----------------4-4---------4-4-6--6---------6-6--
A||-1-1-1pm-1pm-4-4-6--6-x-6-6----2-2-2pm-2pm-2-4-4--4-4pm-4pm-4-4--
E||-------------2-4-6--6-x-6-6--------------------------------------
            
Tabs too difficult? Try these video lessons and learn fast.




comments powered by Disqus
↑ Back to top | Tablatures and chords are parodies/interpretations of the original songs. You may use it for private study, scholarship, research or language learning purposes only