>
 >
Nr Vindarna Viskar Mitt Namn

Nr Vindarna Viskar Mitt Namn Bass Tabs

Hammerfall - Nr Vindarna Viskar Mitt Namn chords, tabs, tablatures, lyrics

Guitar lessons | Add/correct | Request | Top 50 tabs Artists:  A B C D E F G H I J K L M N O P Q R S T U V W X Y Z 0-9

Nr Vindarna Viskar Mitt Namn Bass Tabs – Hammerfall

CD, Sheet music, Poster

Do you like Nr Vindarna Viskar Mitt Namn? Share with your friends now
Bass TabsChordsTabsUkulele
När vindarna viskar mitt namn                           

Hammerfall


     W                   W                   W                 
F||-------------------|-------------------|-------------------|
C||-------------------|-------------------|-------------------|
G||-------------------|-------------------|-------------------|
D||-------------------|-------------------|-------------------|


  E  E  Q    E  E  Q       E  E  Q    Q    Q       E  E  Q    E  E  Q     
------------------------|-----------------------|------------------------|
------------------------|-----------------------|------------------------|
------------------------|-----------------------|------------------------|
--4--4--4----4--4--4----|--4--4--4----0----2----|--4--4--4----4--4--4----|


  W                   E  E  Q    E  E  Q       E  E  Q    E  E  Q     
-------------------|------------------------|------------------------|
-------------------|------------------------|------------------------|
-------------------|------------------------|------------------------|
-------------------|--4--4--4----4--4--4----|--0--0--0----2--2--2----|


  E  E  Q    E  E  Q       W                   E  E  Q    E  E  Q     
------------------------|-------------------|------------------------|
------------------------|-------------------|------------------------|
------------------------|-------------------|------------------------|
--4--4--4----4--4--4----|-------------------|--4--4--4----4--4--4----|


  E  E  Q    E  E  Q       E  E  Q    E  E  Q       W                 
------------------------|------------------------|-------------------|
------------------------|------------------------|-------------------|
------------------------|------------------------|-------------------|
--0--0--0----2--2--2----|--4--4--4----4--4--4----|-------------------|


  E  E  Q    E  E  Q       E  E  Q    E  E  Q       E  E  Q    E  E  Q     
------------------------|------------------------|------------------------|
------------------------|------------------------|------------------------|
------------------------|------------------------|--2--2--2----4--4--4----|
--0--0--0----0--0--0----|--2--2--2----2--2--2----|------------------------|


  E  E  Q    E  E  Q       E  E  Q    E  E  Q       E  E  Q    E  E  Q     
------------------------|------------------------|------------------------|
------------------------|------------------------|------------------------|
------------------------|------------------------|------------------------|
--4--4--4----4--4--4----|--0--0--0----0--0--0----|--2--2--2----2--2--2----|


  E  E  Q    E  E  Q       S. S S. S S. S S. Q    E.     E  E  Q    E  E  Q     
------------------------|-----------------------------|------------------------|
------------------------|-----------------------------|------------------------|
--2--2--2----2--2--2----|--2----2----2----2-----------|------------------------|
------------------------|-----------------------------|--4--4--4----4--4--4----|


  E  E  Q    E  E  Q       E  E  Q    E  E  Q       E  E  Q    E  E  Q     
------------------------|------------------------|------------------------|
------------------------|------------------------|------------------------|
------------------------|------------------------|------------------------|
--2--2--2----2--2--2----|--0--0--0----0--0--0----|--2--2--2----2--2--2----|


  E  E  Q    E  E  Q       E  E  Q    E  E  Q       H        H         
------------------------|------------------------|--------------------|
------------------------|------------------------|--------------------|
------------------------|------------------------|--------------------|
--4--4--4----4--4--4----|--2--2--2----2--2--2----|--0--------2--------|


  E  E  Q    E  E  Q       E  E  Q    Q    Q       E  E  Q    E  E  Q     
------------------------|-----------------------|------------------------|
------------------------|-----------------------|------------------------|
------------------------|-----------------------|------------------------|
--4--4--4----4--4--4----|--4--4--4----0----2----|--4--4--4----4--4--4----|


  W                   E  E  Q    E  E  Q       E  E  Q    E  E  Q     
-------------------|------------------------|------------------------|
-------------------|------------------------|------------------------|
-------------------|------------------------|------------------------|
-------------------|--4--4--4----4--4--4----|--0--0--0----2--2--2----|


  E  E  Q    E  E  Q       W                   E  E  Q    E  E  Q     
------------------------|-------------------|------------------------|
------------------------|-------------------|------------------------|
------------------------|-------------------|------------------------|
--4--4--4----4--4--4----|-------------------|--4--4--4----4--4--4----|


  E  E  Q    E  E  Q       E  E  Q    E  E  Q       W                 
------------------------|------------------------|-------------------|
------------------------|------------------------|-------------------|
------------------------|------------------------|-------------------|
--0--0--0----2--2--2----|--4--4--4----4--4--4----|-------------------|


  E  E  Q    E  E  Q       E  E  Q    E  E  Q       E  E  Q    E  E  Q     
------------------------|------------------------|------------------------|
------------------------|------------------------|------------------------|
------------------------|------------------------|--2--2--2----4--4--4----|
--0--0--0----0--0--0----|--2--2--2----2--2--2----|------------------------|


  E  E  Q    E  E  Q       E  E  Q    E  E  Q       E  E  Q    E  E  Q     
------------------------|------------------------|------------------------|
------------------------|------------------------|------------------------|
------------------------|------------------------|------------------------|
--4--4--4----4--4--4----|--0--0--0----0--0--0----|--2--2--2----2--2--2----|


  E  E  Q    E  E  Q       S. S S. S S. S S. Q    E.     E  E  Q    E  E  Q     
------------------------|-----------------------------|------------------------|
------------------------|-----------------------------|------------------------|
--2--2--2----2--2--2----|--2----2----2----2-----------|------------------------|
------------------------|-----------------------------|--4--4--4----4--4--4----|


  E  E  Q    E  E  Q       E  E  Q    E  E  Q       E  E  Q    E  E  Q     
------------------------|------------------------|------------------------|
------------------------|------------------------|------------------------|
------------------------|------------------------|------------------------|
--2--2--2----2--2--2----|--0--0--0----0--0--0----|--2--2--2----2--2--2----|


  E  E  Q    E  E  Q       E  E  Q    E  E  Q       H        H         
------------------------|------------------------|--------------------|
------------------------|------------------------|--------------------|
------------------------|------------------------|--------------------|
--4--4--4----4--4--4----|--2--2--2----2--2--2----|--0--------2--------|


  E  E  Q    E  E  Q       E  E  Q    Q    Q       E  E  Q    E  E  Q     
------------------------|-----------------------|------------------------|
------------------------|-----------------------|------------------------|
------------------------|-----------------------|------------------------|
--4--4--4----4--4--4----|--4--4--4----0----2----|--4--4--4----4--4--4----|


  W                   W                   W                   W                 
-------------------|-------------------|-------------------|-------------------|
-------------------|-------------------|-------------------|-------------------|
-------------------|-------------------|-------------------|-------------------|
-------------------|-------------------|-------------------|-------------------|


  W                   W                   W                   W                 
-------------------|-------------------|-------------------|-------------------|
-------------------|-------------------|-------------------|-------------------|
-------------------|-------------------|-------------------|-------------------|
-------------------|-------------------|-------------------|-------------------|


  W                   E  E  Q    E  E  Q       E  E  Q    E  E  Q     
-------------------|------------------------|------------------------|
-------------------|------------------------|------------------------|
-------------------|------------------------|------------------------|
-------------------|--0--0--0----0--0--0----|--2--2--2----2--2--2----|


  E  E  Q    E  E  Q       E  E  Q    E  E  Q       E  E  Q    E  E  Q     
------------------------|------------------------|------------------------|
------------------------|------------------------|------------------------|
--2--2--2----4--4--4----|------------------------|------------------------|
------------------------|--4--4--4----4--4--4----|--0--0--0----0--0--0----|


  E  E  Q    E  E  Q       E  E  Q    E  E  Q       W                 
------------------------|------------------------|-------------------|
------------------------|------------------------|-------------------|
------------------------|--2--2--2----2--2--2----|-------------------|
--2--2--2----2--2--2----|------------------------|-------------------|


  E  E  Q    E  E  Q       E  E  Q    E  E  Q       E  E  Q    E  E  Q     
------------------------|------------------------|------------------------|
------------------------|------------------------|------------------------|
------------------------|------------------------|------------------------|
--6--6--6----6--6--6----|--4--4--4----4--4--4----|--2--2--2----2--2--2----|


  E  E  Q    E  E  Q       E  E  Q    E  E  Q       E  E  Q    E  E  Q     
------------------------|------------------------|------------------------|
------------------------|------------------------|------------------------|
------------------------|------------------------|------------------------|
--4--4--4----4--4--4----|--6--6--6----6--6--6----|--4--4--4----4--4--4----|


  H        H           E  E  Q    E  E  Q       E  E  Q    Q    Q     
--------------------|------------------------|-----------------------|
--------------------|------------------------|-----------------------|
--------------------|------------------------|-----------------------|
--2--------4--------|--6--6--6----6--6--6----|--6--6--6----2----4----|


  E  E  Q    E  E  Q       W                   W                 
------------------------|-------------------|-------------------|
------------------------|-------------------|-------------------|
------------------------|-------------------|-------------------|
--6--6--6----6--6--6----|-------------------|-------------------|


  |--3--|  |--3--|  |--3--|  |--3--|                       
  E  E  E  E  E  E  E  E  E  E  E  E     W                 
--------------------------------------|-------------------|
--------------------------------------|-------------------|
--9--7--6--7--6-----6-----------------|-------------------|
-----------------9-----9--7--9--7--6--|-------------------|


  3      |--3--|  3      |--3--|                                               
  Q.     E  E  E  Q.     E  E  E     Q     H        Q       W                  
----------------------------------|----------------------|-------------------||
----------------------------------|----------------------|-------------------||
--7------7--7--7--7------7--7--7--|--7\------------------|-------------------||
----------------------------------|----------------------|-------------------||




Duration Legend
---------------
W - whole
H - half
Q - quarter
E - 8th
S - 16th
T - 32nd
X - 64th
. - note dotted
|-n-|  - n-tuplets


Tablature Legend
----------------
L - tied note
x - dead note
g - grace note
(n) - ghost note
> - accentuded note
NH - natural harmonic
AH - artificial harmonic
TH - tapped harmonic
SH - semi harmonic
PH - pitch harmonic
h - hammer on
p - pull off
b - bend
br - bendRelease
pb - preBend
pbr - preBendRelease
brb - bendReleaseBend
\n/ - tremolo bar dip
\n - tremolo bar dive
-/n - tremolo bar Release up
/n\ - tremolo bar inverted dip
/n - tremolo bar return
-\n - tremolo bar Release down
S - shift slide
s - legato slide
/ -  slide into from below or out of upwards
\ -  slide into from above or out of downwards
~ - vibrato
W - wide vibrato
tr - trill
TP - tremolo picking
T - tapping
S - slap
P - pop
< - fade in
^ - brush up
v - brush down





Comments


Popular Hammerfall tabs & chords
Carved In Stone Bass Tabs
Dreams Come True Bass Tabs
Hearts On Fire Bass Tabs
Man On The Silver Mountain Bass Tabs
Back To Back Tabs
Blood Bound 1 Tabs
Howlin With The Pac Intro Tabs
In Memoriam Tabs
Raise The Hammer Tabs
Titan Intro Tabs


Song lyrics



↑ Back to top | Tablatures and chords are parodies/interpretations of the original songs. You may use it for private study, scholarship, research or language learning purposes only
© 2014 AZChords.com Contact us | Privacy policy | DMCA | Add/correct tabs | Request tabs | Top 50 tabs