>
 >
In Memoriam

In Memoriam Bass Tabs

Hammerfall - In Memoriam chords, tabs, tablatures, lyrics

Guitar lessons | Add/correct | Request | Top 50 tabs Artists:  A B C D E F G H I J K L M N O P Q R S T U V W X Y Z 0-9

In Memoriam Bass Tabs – Hammerfall

CD, Sheet music, Poster

Do you like In Memoriam? Share with your friends now
Bass TabsTabsTabs v2
In Memoriam                                   

HammerFall
Bass (D# G# C# F#)
All lead & solo guitars: Stefan Elmgren



           
      Q                                    E   
F#||------------------------------------------|
C#||------------------------------------------|
G#||------------------------------------------|
D#||------------------------------------------|


                      
  Q    H        E  E                                                
-------------------------------------------------------------------|
-------------------------------------------------------------------|
--0----0--------L--0-----------------------------------------------|
-------------------------------------------------------------------|


  >                     
  Q    Q    Q    E  E   
-----------------------|
-----------------------|
--0----0----0----3-----|
--------------------3--|


                         
  Q.     E                                       E  E  E  E   
-------------------------------------------------------------|
----------------------------------------------------5--------|
--3----------------------------------------------3-----2-----|
---------3------------------------------------------------1--|


                                              >                     
  H.           E  E     H.           E  E     Q    Q    Q    E  E   
---------------------|---------------------|-----------------------|
---------------------|---------------------|-----------------------|
---------------3-----|---------------------|-----------------3--0--|
--3---------------3--|--1------------L--1--|--1----1----1----------|


  H        E  E  E  E     H.           E  E     Q    Q    H         
-----------------------|---------------------|---------------------|
-----------------------|---------------------|------------7--------|
--3--------L-----3-----|---------------3-----|---------------------|
--------------3-----1--|--3---------------3--|--5----5-------------|


  W                    W                   H.           E   E    
-------------------|--------------------|-----------------------|
--L----------------|--------------------|-----------------------|
-------------------|--------------------|-----------------------|
-------------------|--10----------------|--L------------L--13S--|


  W                   W                      W                 
-------------------|-------------------|----------------------|
-------------------|-------------------|----------------------|
-------------------|-------------------|----------------------|
--1----------------|--8----------------|--8g10----------------|


  W                   W                     W                 
-------------------|-------------------|---------------------|
-------------------|-------------------|---------------------|
-------------------|-------------------|---------------------|
--L----------------|--6----------------|--6g8----------------|


                                                            
     W                   H.            Q             W                 
----------------------|---------------------------|-------------------|
----------------------|---------------------------|-------------------|
----------------------|---------------------------|-------------------|
--8g10----------------|--L------------10S---------|--1----------------|


  W                   W                     W                 
-------------------|-------------------|---------------------|
-------------------|-------------------|---------------------|
--3----------------|--1----------------|--1g3----------------|
-------------------|-------------------|---------------------|


  W                   H.           Q       H.           E  E   
-------------------|--------------------|---------------------|
-------------------|--------------------|------------------2--|
--5----------------|--3-----------------|--0------------0-----|
-------------------|---------------3----|---------------------|


  E   E  E   E  E  E  E  E     H        E  E  E  E     W                 
--2s--4--4s--5--4--2--0-----|-----------------------|-------------------|
-------------------------2--|-----------------------|-------------------|
----------------------------|--3--------L-----3-----|-------------------|
----------------------------|--------------3-----1--|--3----------------|


  H.           E  E     Q    Q    E   E  E  E     W                 
---------------------|-------------------------|-------------------|
---------------------|-------------------------|-------------------|
---------------------|-------------------------|--3----------------|
--1------------L--1--|--1----1----8S--3--1-----|-------------------|


  W                     W                   W                 
-------------------|---------------------|-------------------|
-------------------|---------------------|-------------------|
-------------------|---------------------|-------------------|
--3----------------|--3g5----------------|--L----------------|


  Q.     E  E  E  E  E     Q    H        E  E     H        E  E  E  E   
------------2-----------|----------------------|-----------------------|
--0---------------------|----------------------|-----------------------|
---------0-----0-----0--|--0----0-----------5--|-----------------3-----|
------------------------|----------------------|--1--------L--1-----3--|


  W                   W                   H        Q    E  E   
-------------------|-------------------|-----------7----------|
-------------------|-------------------|----------------------|
--3----------------|--5----------------|--5-------------------|
-------------------|-------------------|----------------3--5--|


  H        E  E  E  E     H        E  E  E  E     H.           E  E   
-----------------------|-----------------------|---------------------|
-----------------------|-----------------------|---------------------|
-----------------5-----|-----------------------|--5------------L--0--|
--6--------L--6-----6--|--8--------8--5--3--1--|---------------------|


   E   E   E  E   E  E  E  E     W                 
----------14------------------|-------------------|
------12-------------0--3-----|-------------------|
--12----------0--12-----------|-------------------|
---------------------------3--|--1----------------|


  Q.      E    E    Q      E       H        E  E  E  E   
--------------------------------|-----------------------|
--------------------------------|-----------------------|
--3-----------(3)--(3)----(3)S--|--1--------L-----1-----|
---------(1)--------------------|--------------1-----1--|


  Q.     E  E  Q    E     H        H           H        Q    Q     
-----------------------|-----------7--------|---------------------|
-----------------------|--------------------|-----------5---------|
--3---------3--3-------|--5-----------------|--3------------------|
---------1----------1--|--------------------|----------------3----|


  H.           E  E     Q    H.              H.           E  E   
---------------------|--------------------|---------------------|
---------------------|--------------------|---------------------|
--0------------L--0--|--0----0------------|--3------------L-----|
---------------------|--------------------|------------------1--|


  H.           E  E     H.           E  E     Q    Q    H         
---------------------|---------------------|---------------------|
---------------------|---------------------|---------------------|
---------------3-----|---------------------|---------------------|
--3---------------3--|--1------------L--1--|--1----1----1--------|


  E  E  E  E  E  E  E  E     E  E  E  E  E  E  E  E     H        Q    E  E   
--------------------------|--------------------------|-----------2----------|
--------------------------|--------------------------|-------------------2--|
--3--3--3--3--3--3--3--3--|--------------------------|--0-------------0-----|
--------------------------|--3--3--3--3--3--3--3--3--|----------------------|


  E   E  E   E  E  E  E  E     H        E  E  E  E     H.           E  E   
--2s--4--4s--5--4--2--0-----|-----------------------|---------------------|
-------------------------2--|-----------------------|---------------------|
----------------------------|--3--------L-----3-----|---------------------|
----------------------------|--------------3-----1--|--3------------5--0--|


                        >                                              
  H.           E  E     Q    Q    H           E  E  E  E  E  E  E  E   
---------------------|---------------------|--------------------------|
---------------------|---------------------|--------------------------|
---------------------|---------------------|--3--3--3--3--3--3--3--3--|
--1------------L--1--|--1----1----1--------|--------------------------|


  E  E  E  E  E  E  E  E     H        H             H        Q    Q     
--------------------------|---------------------|----------------------|
--------------------------|---------------------|----------------------|
--------------------------|---------------------|----------------------|
--3--3--3--3--3--3--3--3--|--5--------5S--------|--17--------8----7----|


  Q.     E  E  Q    E     Q    E  E  E  Q    E     Q.     E  H         
-----------------------|------------------------|---------------------|
-----------------------|------------------------|---------------------|
-----------------------|------------------------|------------7--------|
--1------1--1--1----2--|--3----3--3--3--3----2--|--5------5-----------|


  H        Q    Q       E  E  E  E  E  E  E  E     E  E  E  E  E  E  E  E   
---------------------|--------------------------|--------------------------|
--7------------------|--------------------------|--------------------------|
---------------------|--------------------------|--3--3--3--3--3--3--3--3--|
-----------8----0----|--1--1--1--1--1--1--1--1--|--------------------------|


  Q    E  E  H           H        Q    Q       Q.     E  E  Q    E   
----------------------|---------------------|-----------------------|
----------------------|-----------3----2----|-----------------------|
----------------------|---------------------|-----------------------|
--3----3--3--3--------|--3------------------|--1------1--1--1----2--|


  Q    E  E  E  Q    E     Q    E  E  Q.     E     H        Q    Q     
------------------------|-----------------------|---------------------|
------------------------|-----------------------|-----------2---------|
------------------------|-----------------------|----------------3----|
--3----3--3--3--3----2--|--5----5--5--5------5--|--5------------------|


  E  E  E  E  E  E  E  E     E  E  E  E  E  E  E  E     W                 
--------------------------|--------------------------|-------------------|
--------------------------|--------------------------|-------------------|
--5--5--5--5--5--5--5--5--|--3--3--3--3--3--3--3--3--|--7----------------|
--------------------------|--------------------------|-------------------|


  W                   W                   W                 
-------------------|-------------------|-------------------|
-------------------|-------------------|-------------------|
--L----------------|--0----------------|--L----------------|
-------------------|-------------------|-------------------|


                        
  W                                                  W                 
--------------------------------------------------|-------------------|
--------------------------------------------------|-------------------|
--3-----------------------------------------------|-------------------|
--------------------------------------------------|--3----------------|


  W                   W                   E  E  E  E  E  E  E  E   
-------------------|-------------------|--------------------------|
-------------------|-------------------|--------------------------|
-------------------|-------------------|--3--3--3--3--3--3--3--3--|
--1----------------|--L----------------|--------------------------|


  E  E  E  E  E  E  E  E     W                   W                 
--------------------------|-------------------|-------------------|
--------------------------|-------------------|-------------------|
--6--6--6--6--6--6--6--6--|-------------------|--7----------------|
--------------------------|--0----------------|-------------------|


  W                   Q.     E  E  E  E  E     H.           E   E    
-------------------|------------------------|-----------------------|
-------------------|---------0--4--0--------|-----------------------|
-------------------|--5---------------2--0--|--3------------L---L---|
--3----------------|------------------------|------------------(3)--|


   Q      Q     E  E  E  E     E  E  E  E  E  E  E  E   
----------------------------|--------------------------|
----------------------------|--------------------------|
---L------L-----3--2--0-----|--------------------------|
--(3)----(3)-------------2--|--3--3--3--3--3--3--3--3--|


                                       >          
  E  E  E  E  E  E  E  E     Q.     E  Q.     E   
--------------------------|----------------------|
--------------5-----2-----|----------------------|
--5--5--5--5-----3-----2--|-------------------7--|
--------------------------|--0------0--0---------|


  E  E  E   E    E    E   Q       W                   W                 
--9-------------(9)------------|-------------------|-------------------|
-----9---------------(9)-------|-------------------|-------------------|
-----------(7)-----------------|-------------------|--5----------------|
-------------------------------|--3----------------|-------------------|


  W                   W                   E  E  E  E  E  E  E  E   
-------------------|-------------------|--------------------------|
-------------------|-------------------|--------------5-----------|
--3----------------|--3----------------|--------------------------|
-------------------|-------------------|--3--3--3--3-----3--3--3--|


  E  E  E  E  H           H        Q.     E     Q    Q    Q    E  E   
-----------------------|---------------------|-----------------------|
-----------------------|-----------2---------|------------2----------|
--5--5--5--5--5--------|---------------------|-----------------3-----|
-----------------------|--0---------------0--|--0----0------------2--|


  W                   Q.     E  E  E  E  E     W                 
-------------------|------------------------|-------------------|
-------------------|---------0--4--0--------|-------------------|
-------------------|--5---------------2--0--|--3----------------|
--3----------------|------------------------|-------------------|


  H        E  E  E  E     E  E  E  E  E  E  E  E     E  E  E  E  E  E  E  E   
-----------------------|--------------------------|--------------------------|
-----------2-----------|--------------------------|--------------------------|
--L-----------2--3-----|--------------------------|--5--5--5--5--5--5--5--5--|
--------------------2--|--3--3--3--3--3--3--3--3--|--------------------------|


  H.           E  E     E  E  Q     E    E   Q       Q.     E  Q.     E   
---------------------|--9----------(9)------------|----------------------|
---------------------|-----9------------(9)-------|------------5---------|
---------------------|----------------------------|----------------------|
--0------------L--0--|----------------------------|--3------3---------3--|


  W                   H.           E  E     Q    Q    E  E  Q     
-------------------|---------------------|-----------------------|
-------------------|---------------------|-----------------------|
--5----------------|--3------------L-----|------------7--0-------|
-------------------|------------------3--|--3----3---------------|


  E  E  E  E  E  E  E  E     E  E  E  E  E  E  E  E     H        Q.     E   
--------------------------|--------------------------|---------------------|
--------------5-----------|--------------------------|-----------2---------|
--------------------------|--5--5--5--5--5--5--5--5--|---------------------|
--3--3--3--3-----3--3--3--|--------------------------|--0---------------0--|


  Q    Q    E  E  E  E     W                   Q.     E  E  E  E  E   
------------------------|-------------------|------------------------|
------------2-----------|-------------------|---------0--4--0--------|
---------------2--3-----|-------------------|--5---------------2--0--|
--0----0-------------2--|--3----------------|------------------------|


  W                   W                   E  E  E  E  E  E  E  E   
-------------------|-------------------|--------------------------|
-------------------|-------------------|--------------------------|
--3----------------|--L----------------|--------------------------|
-------------------|-------------------|--3--3--3--3--3--3--3--3--|


  E  E  E  E  E  E  E  E     H.           E  E     E  E  Q     E    E   Q     
--------------------------|---------------------|--9----------(9)------------|
--------------------------|---------------------|-----9------------(9)-------|
--5--5--5--5--5--5--5--5--|---------------------|----------------------------|
--------------------------|--0------------L--0--|----------------------------|


  W                   W                   H.           E  E   
-------------------|-------------------|---------------------|
-------------------|-------------------|---------------------|
-------------------|--5----------------|--3------------L-----|
--3----------------|-------------------|------------------3--|


  Q    Q    H          
---------------------||
---------------------||
---------------------||
--3----3----3--------||




Duration Legend
---------------
W - whole
H - half
Q - quarter
E - 8th
S - 16th
T - 32nd
X - 64th
. - note dotted
|-n-|  - n-tuplets


Tablature Legend
----------------
L - tied note
x - dead note
g - grace note
(n) - ghost note
> - accentuded note
NH - natural harmonic
AH - artificial harmonic
TH - tapped harmonic
SH - semi harmonic
PH - pitch harmonic
h - hammer on
p - pull off
b - bend
br - bendRelease
pb - preBend
pbr - preBendRelease
brb - bendReleaseBend
\n/ - tremolo bar dip
\n - tremolo bar dive
-/n - tremolo bar Release up
/n\ - tremolo bar inverted dip
/n - tremolo bar return
-\n - tremolo bar Release down
S - shift slide
s - legato slide
/ -  slide into from below or out of upwards
\ -  slide into from above or out of downwards
~ - vibrato
W - wide vibrato
tr - trill
TP - tremolo picking
T - tapping
S - slap
P - pop
< - fade in
^ - brush up
v - brush down





Comments


Popular Hammerfall tabs & chords
Born To Rule Bass Tabs
Glory To The Brave 2 Bass Tabs
Warriors Of Faith Bass Tabs
Any Means Necessary Tabs
Carved In Stone Part 3 Tabs
Glory To The Brave Tabs
Renegade Tabs
Renegade 1 Tabs
Secrets Tabs
Never Ever Ukulele


Song lyrics



↑ Back to top | Tablatures and chords are parodies/interpretations of the original songs. You may use it for private study, scholarship, research or language learning purposes only
© 2014 AZChords.com Contact us | Privacy policy | DMCA | Add/correct tabs | Request tabs | Top 50 tabs