» » »

Hammerfall, Hero's Return Tabs (ver.1)

Artists:  A B C D E F G H I J K L M N O P Q R S T U V W X Y Z # 

Hero's Return Tabs (ver.1)

Hammerfall Tabs
Rating:
0/5 (0 votes)
Hero's Return lessons Tabs too difficult? Try these video lessons and learn fast
                Intro/Title Melody
e ||-----------------------------------------------------||
b ||-----------------------------------------------------||
g ||--11-13-11-10-----11~----11-13-13b(15)r13p11-13~-----||
D ||--------------13-------------------------------------||
A ||-----------------------------------------------------||
E ||-----------------------------------------------------||

e ||----------------------------------------11~-13~--11~-||
b ||---11-11b(12)r11-----12-14-12-11-12-14~--------------||
g ||13---------------13----------------------------------||
D ||-----------------------------------------------------||
A ||-----------------------------------------------------||
E ||-----------------------------------------------------||
note: They put alot of pinch harmonics in there. Just throw
some in when you think they fit.


Bridge (2:38)
e ||-----------------------------------------------------||
b ||-----------------------------------------------------||
g ||-11-10-11-13-11-10--11-10-11-10----10----------------||
D ||--------------------------------11-------------------||
A ||-----------------------------------------------------||
E ||-----------------------------------------------------||

e ||-----------------------------------------------------||
b ||-----------------------------11----------------------||
g ||-11-10-11-13-11-10--13-11-13----11-10----------------||
D ||-----------------------------------------------------||
A ||-----------------------------------------------------||
E ||-----------------------------------------------------||

e ||-----------------------------------------------------||
b ||-----------------------------------------------------||
g ||-11-10-11-13-11-10--11-10-11-10----10----------------||
D ||--------------------------------11-------------------||
A ||-----------------------------------------------------||
E ||-----------------------------------------------------||

e ||-----------------------------------------------------||
b ||-----------------------------11----------------------||
g ||-11-10-11-13-11-10--13-11-13-------------------------||
D ||-----------------------------------------------------||
A ||-----------------------------------------------------||
E ||-----------------------------------------------------||

Lead (2:44)
e ||-----------------------------------------------------||
b ||-----------------------------------------------------||
g ||----11------------------10---------------------------||
D ||-13----13p11-13~--11-13---13-11-------p.h.-p.h.-p.h.-||
A ||-------------------------------14-13~--13b-11--13----||
E ||-----------------------------------------------------||

(2:49)
e ||-----------------------------------------------------||
b ||-----------------------------------------------------||
g ||---------------------10-----10-----------------------||
D ||---------11--11--13------13--------------------------||
A ||-14-13-14--14------------------13--------------------||
E ||-----------------------------------------------------||

(2:53)
e ||-----------------------------------------------------||
b ||-----------------------------------------------------||
g ||-13-------13-------13-------13-------11-----11----11~||
D ||----11-11----11-11----11-11----11-11----9-9----9-9---||
A ||-----------------------------------------------------||
E ||-----------------------------------------------------||
pm      .   .    .  .     .   .    .   .    . .    . .

(2:56)
e ||-----------------------------------------------------||
b ||-------11-12--------11-12-11-11-11-11--------11-11---||
g ||-13--13-----13---13------------p.h.-p.h.-13-----p.h.-||
D ||------------p.h.-------------------------------------||
A ||-----------------------------------------------------||
E ||-----------------------------------------------------||

(3:01)
e ||-p.h.-p.h.-----p.h.---p.h.---------------------------||
b ||-11--11--12-14-11-----11-12-14-14~-------------------||
g ||-----------------------------------------------------||
D ||-----------------------------------------------------||
A ||-----------------------------------------------------||
E ||-----------------------------------------------------||

(3:06)
e ||-19-16-18-21-19--------------------------------------||
b ||-----------------------------------------------------||
g ||-----------------------------------------------------||
D ||-----------------------------------------------------||
A ||-----------------------------------------------------||
E ||-----------------------------------------------------||
            

comments powered by Disqus
↑ Back to top | Hammerfall Tabs for Hero's Return. Lyrics for acoustic guitar and electric guitar. Tablatures and chords are parodies/interpretations of the original songs. You may use it for private study, scholarship, research or language learning purposes only