» » »

Glory To The Brave Bass tabs (ver.1)

Artists:  A B C D E F G H I J K L M N O P Q R S T U V W X Y Z # 

Glory To The Brave Bass tabs (ver.1)

Hammerfall
Rating:
0/5 (0 votes)

Hard to play? Try these video lessons and learn fast.
                1/2 step down-tune

Gb|-----------|------------------------------------------------------------------|
Db|-----------|------------------------------------------------------------------|
Ab|---7----5--|---------------------------------------------------5-5-5-5-5-5-5--|
Eb|-----------|-3-3-3-3-3-3-3-3-3-3-3-3-3-3-3-3-3-3-3-3-3-3-3-3-3----------------|
                                                                              
Gb|---------------------------------------|---|
Db|---------------------------------------|---|
Ab|-5-5-5-5-5-5-5-5-5-5-5-5-5-5-5-5-5-5-5-|---|
Eb|---------------------------------------|---|
                                                                              

Gb|---------------------------------------------------|---|
Db|---------------------------------------------------|---|
Ab|---------------------------------------------------|---|
Eb|----5--------3-3--5------1-1--3-----1-1--5-----3-3-|---|
                                                                              

Gb|------------------------------------------------------------------------------|
Db|------------------------------------------------------------------------------|
Ab|------------------------------------------------------------------------------|
Eb|---5-5-5-5-5-5-5-5-5-5-5-5-5-5-3-3-3-3-5-5-5-5-5-5-5-5-5-5-5-5-5-5-1-1-1-1-3--|
                                                                              
Gb|------------------------------------------------------------------------------|
Db|------------------------------------------------------------------------------|
Ab|------------------------------------------------------------------------------|
Eb|-3-3-3-3-3-3-3-3-3-3-3-3-3-1-1-1-1-1-5-5-5-5-5-5-5-5-5-5-5-5-5-5-5-5-5-5-5-5--|
                                                                              

Gb|--------------------------------------------------------------------------||--|
Db|--------------------------------------------------------------------------||--|
Ab|------------------2-2-2-2-2-2-2-2-3-3-3-3-3-3-3-3-------------------------||--|
Eb|--0-0-0-0-0-0-0-0---------------------------------3-3-3-3-3-3-2-2-2-2-2-2-||--|
                                                                              
chorus

Gb|------------------------------------------------------------------------------|
Db|------------------------------------------------------------------------------|
Ab|---------------------------------------------------5-5-5-5-5-5-5-5-5-5-5-5-5--|
Eb|---3-3-3-3-3-3-3-3-3-3-3-3-3-3-3-3-3-3-3-3-3-3-3-3----------------------------|
                                                                              
Gb|-------------------------|---|
Db|-----------------3-3-3-3-|---|
Ab|-5-5-5-5-5-5-5-5---------|---|
Eb|-------------------------|---|
                                                                              

Gb|-------|------|----|----------|-----|-----|-----|-----------|---|
Db|-------|------|----|--1----3--|-----|-----|-----|--1------0-|---|
Ab|-------|--1---|-3--|----------|-----|--1--|--3--|-----------|---|
Eb|---3---|------|----|----------|--3--|-----|-----|-----------|---|
                                                                              

Gb|---------------------------------------------------1-1-1-1-1-1-1-1-3-3-3-3-3--|
Db|-------------------1-1-1-1-1-1-1-1-3-3-3-3-3-3-3-3----------------------------|
Ab|---3-3-3-3-3-3-3-3------------------------------------------------------------|
Eb|------------------------------------------------------------------------------|
                                                                              
Gb|-3-3-3-------------------------------------------------1-1-1-1-1-1-1-1-0-0-0--|
Db|-----------------------1-1-1-1-1-1-1-1-3-3-3-3-3-3-3-3------------------------|
Ab|-------3-3-3-3-3-3-3-3--------------------------------------------------------|
Eb|------------------------------------------------------------------------------|
                                                                              
Gb|-0-0-0-0-0--------------------------------------------------------------------|
Db|-----------------------------------------------------------1-1-1-1-1-1-1-1-3--|
Ab|---------------------------1-1-1-1-1-1-1-1-3-3-3-3-3-3-3-3--------------------|
Eb|-----------3-3-3-3-3-3-3-3----------------------------------------------------|
                                                                              
Gb|------------------------------------------------------------------------------|
Db|-3-3-3-3-3-3-3-3-------------------------------------------------1-1-1-1-1-1--|
Ab|---------------------------------1-1-1-1-1-1-1-1-3-3-3-3-3-3-3-3--------------|
Eb|-----------------3-3-3-3-3-3-3-3----------------------------------------------|
                                                                              
Gb|---------------------|---|
Db|-1-1-0-0-0-0-0-0-0-0-|---|
Ab|---------------------|---|
Eb|---------------------|---|
                                                                              

Gb|------------------------------------------------------------------------------|
Db|-------------------1-1-1-1-1-1-1-1--------------------------------------------|
Ab|---3-3-3-3-3-3-3-3-------------------------------------------------1-1-1-1-1--|
Eb|-----------------------------------1-1-1-1-1-1-1-1-4-4-4-4-4-4-4-4------------|
                                                                              
Gb|---------------------------------------------------------1-1-1-1-1-1-1-1-3-3--|
Db|-----------------------1-1-1-1-1-1-1-1-1-3-3-3-3-3-3-3-3----------------------|
Ab|-1-1-1-3-3-3-3-3-3-3-3--------------------------------------------------------|
Eb|------------------------------------------------------------------------------|
                                                                              
Gb|-3-3-3-3-3-3--|---|
Db|--------------|---|
Ab|--------------|---|
Eb|--------------|---|
                                                                              

Gb|------------------------------------------------------------------------------|
Db|---------------------------------------------------1-1-1-1-1-1-1-1-3-3-3-3-3--|
Ab|-------------------1-1-1-1-1-1-1-1-3-3-3-3-3-3-3-3----------------------------|
Eb|---3-3-3-3-3-3-3-3------------------------------------------------------------|
                                                                              
Gb|------------------------------------------------------------------------------|
Db|-3-3-3-------------------------------------------------1-1-1-1-1-1-1-1-0-0-0--|
Ab|-----------------------1-1-1-1-1-1-1-1-3-3-3-3-3-3-3-3------------------------|
Eb|-------3-3-3-3-3-3-3-3--------------------------------------------------------|
                                                                              
Gb|-------------------------------------------------------------1-1-1-1-1-1-1-1--|
Db|-0-0-0-0-0-----------------1-1-1-1-1-1-1-1-3-3-3-3-3-3-3-3-3------------------|
Ab|-----------3-3-3-3-3-3-3-3----------------------------------------------------|
Eb|------------------------------------------------------------------------------|
                                                                              
Gb|-3-3-3-3-3-3-3-3---------------------------------------------------1-1-1-1-1--|
Db|---------------------------------1-1-1-1-1-1-1-1-3-3-3-3-3-3-3-3-3------------|
Ab|-----------------3-3-3-3-3-3-3-3----------------------------------------------|
Eb|------------------------------------------------------------------------------|
                                                                              
Gb|-1-1-1-1-3-3-3-3-3-3-3-3--|-----|---|
Db|--------------------------|--5--|---|
Ab|--------------------------|--3--|---|
Eb|--------------------------|-----|---|
                                                                              

Gb|-------|-------|------|-------------|------|------|------|------|------|---|
Db|-------|-------|------|---------5-4-|------|------|------|------|------|---|
Ab|---7---|---3---|--5---|---7---------|--7---|--3---|--5---|------|--2---|---|
Eb|-------|-------|------|-------------|------|------|------|--3---|------|---|
              
                                                              

Gb|-------|-------|------|------|-------|-------|------|-------|-------|------|--|
Db|-------|-------|------|------|-------|-------|------|-------|-------|------|--|
Ab|---7---|---3---|---5--|---7--|-------|---3---|--5---|--7----|---7---|---3--|--|
Eb|-------|-------|------|------|---0---|-------|------|-------|-------|------|--|
                                                                              
Gb|----------|----------|--------|---------|---------|----------------------|---|
Db|----------|----------|--------|---------|---------|----------------------|---|
Ab|------5---|-----7----|--------|-----3---|-----5-5-|-3-5---77777777777777-|---|
Eb|----------|----------|----0---|---------|---------|----------------------|---|
                                                                              
Gb|---------|---|
Db|---------|---|
Ab|---7-7---|---|
Eb|---------|---|

listen for the timing this one was kind of difficult
            
Hard to play? Try these video lessons and learn fast. | Correct




comments powered by Disqus
↑ Back to top | Tablatures and chords are parodies/interpretations of the original songs. You may use it for private study, scholarship, research or language learning purposes only