» » »

Hammerfall, Dark Wings, Dark Words Tabs (ver.1)

Artists:  A B C D E F G H I J K L M N O P Q R S T U V W X Y Z # 

Dark Wings, Dark Words Tabs (ver.1)

Hammerfall Tabs
 Rating:
4/5 (4 votes)
Dark Wings, Dark Words lessons Tabs too difficult? Try these video lessons and learn fast
                
Dark Winds,Dark Words-HammerFall:

Excellent song by HammerFall.Taken from the album
Threshold(2006).Let΄s try to play this song:


Tab Key:

p=pull-off
b=bend
r=return bend
/=slide up
\=slide down
pm=palm mute
h=hammer-on
()=ghost note
X=dead note


ok.Here we go now:


                         Intro:
1st part:
e-----------------------------------------------5-|
B-5h7-5-8-7--5h7-5-8-7-5--5h7-5-8-7--5h7-5-8-7-6--|
G-------------------------------------------------|
D-------------------------------------------------|
A-------------------------------------------------|
E-------------------------------------------------|x2

2nd part:
e--------------|
B---------4----|
G--------5-5-4-|
D-7-9-7-6------|
A--------------|
E--------------|x3

e------------4-|
B-----------4--|
G--------6-5---|
D-7-9-7-6------|
A--------------|
E--------------|

                  Verse:

e--------------|
B---------4----|
G--------5-5-4-|
D-7-9-7-6------|
A--------------|
E--------------|x3

e------------4-|
B-----------4--|
G--------6-5---|
D-7-9-7-6------|
A--------------|
E--------------|

e--------------|
B---------4----|
G--------5-5-4-|
D-7-9-7-6------|
A--------------|
E--------------|x4

e------------4-|
B-----------4--|
G--------6-5---|
D-7-9-7-6------|
A--------------|
E--------------|

               In the middle of the Verse:

e-------------------------4-|
B--4------4------4-------4--|
G-5-5-4--5-5-4--5-5-4-6-5---|
D---------------------------|
A---------------------------|
E---------------------------|

                Verse:

e--------------|
B---------4----|
G--------5-5-4-|
D-7-9-7-6------|
A--------------|
E--------------|x3

e------------4-|
B-----------4--|
G--------6-5---|
D-7-9-7-6------|
A--------------|
E--------------|

e--------------|
B---------4----|
G--------5-5-4-|
D-7-9-7-6------|
A--------------|
E--------------|x4

e------------4-|
B-----------4--|
G--------6-5---|
D-7-9-7-6------|
A--------------|
E--------------|

                     Chorus:

e-------------------|
B-------------------|
G-----------7-5---7-|
D-7-8-5-6-7-7-5-5-7-|
A-7-8-5-6-7-5-3-5-5-|
E-5-6-3-4-5-----3---|x2

                   After Chorus:

e-----------------------------------------------5-|
B-5h7-5-8-7--5h7-5-8-7-5--5h7-5-8-7--5h7-5-8-7-6--|
G-------------------------------------------------|
D-------------------------------------------------|
A-------------------------------------------------|
E-------------------------------------------------|x2

                     Solo(rythm):

e-------------|
B-------------|
G-------------|
D-7-7-7-9-9-9-|
A-7-7-7-9-9-9-|
E-5-5-5-7-7-7-|repeat that till the end of the solo

                       After Solo:

e--------------|
B---------4----|
G--------5-5-4-|
D-7-9-7-6------|
A--------------|
E--------------|x3

e------------4-|
B-----------4--|
G--------6-5---|
D-7-9-7-6------|
A--------------|
E--------------|

                          Verse:

e--------------|
B---------4----|
G--------5-5-4-|
D-7-9-7-6------|
A--------------|
E--------------|x3

e------------4-|
B-----------4--|
G--------6-5---|
D-7-9-7-6------|
A--------------|
E--------------|

e--------------|
B---------4----|
G--------5-5-4-|
D-7-9-7-6------|
A--------------|
E--------------|x4

e------------4-|
B-----------4--|
G--------6-5---|
D-7-9-7-6------|
A--------------|
E--------------|


                         Chorus:

e-------------------|
B-------------------|
G-----------7-5---7-|
D-7-8-5-6-7-7-5-5-7-|
A-7-8-5-6-7-5-3-5-5-|
E-5-6-3-4-5-----3---|x4


                        THE END

I wish you liked my tab.I did my best.Dont forget to make me
comments and rate my work,so i can write a better tab next
time or change some things on this tab.But in my opinion
the most important is to have fun!!!!!!!
Thank you for reading my tab.



Album:Threshold
            
Submit corrections

comments powered by Disqus
↑ Back to top | Hammerfall Tabs for Dark Wings, Dark Words. Lyrics for acoustic guitar and electric guitar. Tablatures and chords are parodies/interpretations of the original songs. You may use it for private study, scholarship, research or language learning purposes only