>
 >
Born To Rule

Born To Rule Bass Tabs

Hammerfall - Born To Rule chords, tabs, tablatures, lyrics

Guitar lessons | Add/correct | Request | Top 50 tabs Artists:  A B C D E F G H I J K L M N O P Q R S T U V W X Y Z 0-9

Born To Rule Bass Tabs – Hammerfall

CD, Sheet music, Poster

Do you like Born To Rule? Share with your friends now
Bass Tabs
Born To Rule                                   


HammerFall
Magnus Rosen (D# G# C# F#)



      H           E  E  E  S S E  E  E  E     E  E  E  S S E  E  E  E   
F#||-----------|---------------------------|---------------------------|
C#||-----------|---------------------------|---------------------------|
G#||-----------|---------------------------|---------------------------|
D#||-----------|--0--0--0--0-0-3--2--3--0--|--L--0--0--0-0-3--2--3--5--|


  E  E  E  S S E  E  E  E     E  E  E  E  E  E  E  E   
---------------------------|--------------------------|
---------------------------|--------------------------|
---------------------------|--3--3--3--3--2--0--------|
--L--0--0--0-0-3--2--3--0--|--------------------3--2--|


  E  E  E  S S E  E  E  E     E  E  E  S S E  E  E  E   
---------------------------|---------------------------|
---------------------------|---------------------------|
---------------------------|---------------------------|
--0--0--0--0-0-3--2--3--0--|--L--0--0--0-0-3--2--3--5--|


  E  E  E  S S E  E  E  E     E  E  E  E  E  E  E  E     W                 
---------------------------|--------------------------|-------------------|
---------------------------|--------------------------|-------------------|
---------------------------|--3--3--3--3--2--0--------|-------------------|
--L--0--0--0-0-3--2--3--0--|--------------------3--2--|--0----------------|


  W                   W                   E  E  E  E  E  E  E  E   
-------------------|-------------------|--------------------------|
-------------------|-------------------|--------------------------|
-------------------|-------------------|--3--3--3--3--2--0--------|
--L----------------|--L----------------|--------------------3--2--|


  W                   W                   W                 
-------------------|-------------------|-------------------|
-------------------|-------------------|-------------------|
-------------------|-------------------|-------------------|
--0----------------|--L----------------|--L----------------|


  E  E  E  E  E  E  E  E     E  E  E  S S E  E  E  E   
--------------------------|---------------------------|
--------------------------|---------------------------|
--3--3--3--3--2--0--------|---------------------------|
--------------------3--2--|--0--0--0--0-0-3--2--3--0--|


  E  E  E  S S E  E  E  E     E  E  E  S S E  E  E  E   
---------------------------|---------------------------|
---------------------------|---------------------------|
---------------------------|---------------------------|
--L--0--0--0-0-3--2--3--5--|--L--0--0--0-0-3--2--3--0--|


  E  E  E  E  E  E  E  E     W                   W                 
--------------------------|-------------------|-------------------|
--------------------------|-------------------|-------------------|
--3--3--3--3--2--0--------|-------------------|-------------------|
--------------------3--2--|--0----------------|--L----------------|


  W                   E  E  E  E  E  E  E  E     W                 
-------------------|--------------------------|-------------------|
-------------------|--------------------------|-------------------|
-------------------|--3--3--3--3--2--0--------|-------------------|
--L----------------|--------------------3--2--|--0----------------|


  W                   W                   E  E  E  E  E  E  E  E   
-------------------|-------------------|--------------------------|
-------------------|-------------------|--------------------------|
-------------------|-------------------|--3--3--3--3--2-----------|
--L----------------|--L----------------|-----------------0--2--3--|


  Q    E  E  E  Q    E     H        E  E  E  E     Q    E  S S E  E  E  E   
------------------------|-----------------------|--------------------------|
------------------------|-----------------------|--------------------------|
------------------------|--------------0--2--3--|--L----3--3-3-3--2--3--2--|
--5----5--5--5--3----5--|--L--------------------|--------------------------|


  E  E  E  S S E  E  E  E     Q    E  E  E  Q    E     H        E  E  E  E   
---------------------------|------------------------|-----------------------|
---------------------------|------------------------|-----------------------|
--L--x--2--2-2-3--2--------|------------------------|--------------0--2--3--|
---------------------3--5--|--L----5--5--5--3----5--|--L--------L-----------|


  H        E  E  E  E     H        E  E  E  E     E  E  E  S S E  E  E  E   
-----------------------|-----------------------|---------------------------|
-----------------------|-----------------------|---------------------------|
--L--------L--2--3--5--|--L--------6--2--------|---------------------------|
-----------------------|-----------------3--2--|--0--0--0--0-0-3--2--3--0--|


  E  E  E  S S E  E  E  E     E  E  E  S S E  E  E  E   
---------------------------|---------------------------|
---------------------------|---------------------------|
---------------------------|---------------------------|
--L--0--0--0-0-3--2--3--5--|--L--0--0--0-0-3--2--3--0--|


  E  E  E  E  E  E  E  E     E  E  E  S S E  E  E  E   
--------------------------|---------------------------|
--------------------------|---------------------------|
--3--3--3--3--2--0--------|---------------------------|
--------------------3--2--|--0--0--0--0-0-3--2--3--0--|


  E  E  E  S S E  E  E  E     E  E  E  S S E  E  E  E   
---------------------------|---------------------------|
---------------------------|---------------------------|
---------------------------|---------------------------|
--L--0--0--0-0-3--2--3--5--|--L--0--0--0-0-3--2--3--0--|


  E  E  E  E  E  E  E  E     E  E  E  S S E  E  E  E   
--------------------------|---------------------------|
--------------------------|---------------------------|
--3--3--3--3--2--0--------|--0--0--0--0-0-3--2--3--0--|
--------------------3--2--|---------------------------|


  E  E  E  S S E  E  E  E     E  E  E  S S E  E  E  E   
---------------------------|---------------------------|
---------------------------|---------------------------|
--L--0--0--0-0-3--2--3--5--|--L--0--0--0-0-3--2--3--0--|
---------------------------|---------------------------|


  E  E  E  E  E  E  E  E     E  E  E  S S E  E  E  E   
--------------------------|---------------------------|
--3--3--3--3--2--0--------|---------------------------|
--------------------3--2--|--0--0--0--0-0-3--2--3--0--|
--------------------------|---------------------------|


  E  E  E  S S E  E  E  E     E  E  E  S S E  E  E  E   
---------------------------|---------------------------|
---------------------------|---------------------------|
--L--0--0--0-0-3--2--3--5--|--L--0--0--0-0-3--2--3--0--|
---------------------------|---------------------------|


  E  E  E  E  E  E  E  E     E  E  E  E  E  E  E  E   
--------------------------|--------------------------|
--3--3--3--3--2--0--------|--------------------------|
--------------------3--2--|--5--5--5--5--5--5--5--5--|
--------------------------|--------------------------|


  E  E  E  E  E  E  E  E     E  E  E  E  E  E  E  E   
--------------------------|--------------------------|
--------------------------|--------------------------|
--5--5--5--7--7--3--5--5--|--3--3--3--3--3--3--3--0--|
--------------------------|--------------------------|


  E  E  E  E  E  E  E  E     E  E  E  E  E  E  E  E   
--------------------------|--------------------------|
--------------------------|--------------------------|
--0--0--0--1--1--0--3--3--|--5--5--5--5--5--5--5--5--|
--------------------------|--------------------------|


  E  E  E  E  E  E  E  E     E  E  E  E  E  E  E  E   
--------------------------|--------------------------|
--------------------------|--------------------------|
--5--5--5--7--7--3--5--5--|--3--3--3--3--3--3--3--0--|
--------------------------|--------------------------|


  E  E  E  E  E  E  E  E     E  E  E  E  E  E  E  E   
--------------------------|--------------------------|
--------------------------|--------------------------|
--0--0--0--1--1--0--3--3--|--5--5--5--5--5--5--5--5--|
--------------------------|--------------------------|


  E  E  E  E  E  E  E  E     E  E  E  E  E  E  E  E   
--------------------------|--------------------------|
--------------------------|--------------------------|
--5--5--5--7--7--3--5--5--|--3--3--3--3--3--3--3--3--|
--------------------------|--------------------------|


  E  E  E  E  E  E  E  E     E  E  E  E  E  E  E  E   
--------------------------|--------------------------|
--------------------------|--------------------------|
--0--0--x--1--1--x--3--3--|--5--5--5--5--5--5--5--5--|
--------------------------|--------------------------|


  E  E  E  E  E  E  E  E     E  E  E  E  E  E  E  E   
--------------------------|--------------------------|
--------------------------|--------------------------|
--5--5--5--7--7--3--5--5--|--3--3--3--3--3--3--3--3--|
--------------------------|--------------------------|


  E  E  E  E  E  E  E  E     W                   E  E  E  E  E  E  E  E   
--------------------------|-------------------|--------------------------|
--------------------------|-------------------|--------------------------|
--0--0--x--1--1--x--3--3--|--0----------------|-----------2--5-----------|
--------------------------|-------------------|--0--0--0--------0--0--0--|


  E  E  E  E  E  E  E  E     E  E  E  E  E  E  E  E   
--------------------------|--------------------------|
--------------------------|--------------------------|
--------------------------|--------------------------|
--0--0--0--0--0--0--0--0--|--3--3--3--5--3--2--2--2--|


  E  E  E  E  E  E  E  E     E  E  E  E  E  E  E  E   
--------------------------|--------------------------|
--------------------------|--------------------------|
--------------------------|-----------------5--5-----|
--2--2--2--2--2--2--2--2--|--0--0--0--0--0--------0--|


  E  E  E  E  E  E  E  E     E  E  E  E  E  E  E  E     Q    E  E  E  E  E  E   
--------------------------|--------------------------|-------------------------|
--------------------------|--------------------------|-------------------------|
--------------------------|--------------------------|----------5--5--5--0--0--|
--0--0--0--0--5--3--2--0--|--0--x--0--0--x--0--0--0--|--L----x-----------------|


  E  E  E  E  E  E  Q       E  E  E  E  E  E  E  E   
-------------------------|--------------------------|
-------------------------|--------------------------|
-----------2--5--7--L----|--------------------7--9--|
--0--0--0----------------|--0--0--0--0--0--0--------|


   Q     E   E   E  Q.        E  E  E  E  E  E  E  E   
---------------------------|--------------------------|
---------------------------|--------------------------|
--10----10--12--10--9------|--------------------------|
---------------------------|--2--2--2--2--2--2--2--2--|


  E  E  E  E  E  E  E  E     H        E  E  E  E     E  E  E  E  E  E  E  E   
--------------------------|-----------------------|--------------------------|
--------------------------|-----------------------|--------------------------|
-----------------5--5--7--|--L--------------------|--------------------------|
--0--0--0--0--0-----------|-----------5--3--2--0--|--0--x--0--0--x--0--0--0--|


  Q    E  Q    E  Q       E  E  E  E  E  E  E  E     E  E  E  E  E  E  E  E   
-----------------------|--------------------------|--------------------------|
-----------------------|--------------------------|--------------------------|
-------x---------------|--------------------------|--------------------------|
--L-------5----5--4----|--2--2--2--2--2--2--2--5--|--5--5--5--5--5--5--5--5--|


  E  E  E  E  E  E  E  E     E  E  E  E  E  E  E  E   
--------------------------|--------------------------|
--------------------------|--------------------------|
--------------------------|--------------------------|
--2--2--2--2--2--2--2--5--|--5--5--5--7--7--7--7--7--|


  E  E  E  E  E  E  E  E     E  E  E  E  E  E  E  E   
--------------------------|--------------------------|
--------------------------|--------------------------|
--------------------------|--------------------------|
--2--2--2--2--2--2--2--5--|--5--5--5--5--5--5--5--5--|


  E  E  E  E  E  E  E  E     E  E  E  E  E  E  E  E   
--------------------------|--------------------------|
--------------------------|--------------------------|
--2--2--2--2--2--2--2--2--|--4--4--4--4--4--4--4--4--|
--------------------------|--------------------------|


  E  E  E  E  E  E  E  E     E  E  E  E  H           H        E  Q    E   
--------------------------|-----------------------|----------------------|
--------------------------|-----------------------|----------------------|
--5--5--5--5--5--5--5--5--|--7--7--7--7--7--------|----------------------|
--------------------------|-----------------------|--5--------5--3----5--|


  H        E  E  E  E     H        E  E  E  E     H        E  E  E  E   
-----------------------|-----------------------|-----------------------|
-----------------------|-----------------------|-----------------------|
--------------0--2--3--|--L--------3--2--3-----|-----------------------|
--L--------L-----------|--------------------3--|--L--------8--7--3--5--|


  H        E  Q    E     H        E  E  E  E     E  E  E  E  E  E  E   E   
----------------------|-----------------------|---------------------------|
----------------------|-----------------------|---------------------------|
----------------------|-----------------------|---------------------------|
--L--------5--3----5--|--L--------x--5--7--8--|--L--8--8--8--8--7--8--10--|


  E   E   E   E  E  E  E  E     E  E  E  S S E  E  E  E   
-----------------------------|---------------------------|
-----------------------------|---------------------------|
-----------------6--2--------|---------------------------|
--L--10--10--10--------3--2--|--0--0--0--0-0-3--2--3--0--|


  E  E  E  S S E  E  E  E     E  E  E  S S E  E  E  E   
---------------------------|---------------------------|
---------------------------|---------------------------|
---------------------------|---------------------------|
--L--0--0--0-0-3--2--3--5--|--L--0--0--0-0-3--2--3--0--|


  E  E  E  E  E  E  E  E     E  E  E  S S E  E  E  E   
--------------------------|---------------------------|
--------------------------|---------------------------|
--3--3--3--3--2--0--------|---------------------------|
--------------------3--2--|--0--0--0--0-0-3--2--3--0--|


  E  E  E  S S E  E  E  E     E  E  E  S S E  E  E  E   
---------------------------|---------------------------|
---------------------------|---------------------------|
---------------------------|---------------------------|
--L--0--0--0-0-3--2--3--5--|--L--0--0--0-0-3--2--3--0--|


  E  E  E  E  E  E  E  E     E  E  E  S S E  E  E  E   
--------------------------|---------------------------|
--------------------------|---------------------------|
--3--3--3--3--2--0--------|--0--0--0--0-0-3--2--3--0--|
--------------------3--2--|---------------------------|


  E  E  E  S S E  E  E  E     E  E  E  S S E  E  E  E   
---------------------------|---------------------------|
---------------------------|---------------------------|
--L--0--0--0-0-3--2--3--5--|--L--0--0--0-0-3--2--3--0--|
---------------------------|---------------------------|


  E  E  E  E  E  E  E  E     E  E  E  S S E  E  E  E   
--------------------------|---------------------------|
--3--3--3--3--2--0--------|---------------------------|
--------------------3--2--|--0--0--0--0-0-3--2--3--0--|
--------------------------|---------------------------|


  E  E  E  S S E  E  E  E     E  E  E  S S E  E  E  E   
---------------------------|---------------------------|
---------------------------|---------------------------|
--L--0--0--0-0-3--2--3--5--|--L--0--0--0-0-3--2--3--0--|
---------------------------|---------------------------|


  E  E  E  E  E  E  E  E     E  E  E  E  E  E  E  E   
--------------------------|--------------------------|
--3--3--3--3--2--0--------|--3--3--3--3--6--2--------|
--------------------3--2--|--------------------3--2--|
--------------------------|--------------------------|


  E  E  E  E  E  E  E  E     W                   H        H          
--------------------------|-------------------|--------------------||
--------------------------|-------------------|--------------------||
--3--3--3--3--6--2--------|-------------------|--------------------||
--------------------3--2--|-------------------|--0-----------------||




Duration Legend
---------------
W - whole
H - half
Q - quarter
E - 8th
S - 16th
T - 32nd
X - 64th
. - note dotted
|-n-|  - n-tuplets


Tablature Legend
----------------
L - tied note
x - dead note
g - grace note
(n) - ghost note
> - accentuded note
NH - natural harmonic
AH - artificial harmonic
TH - tapped harmonic
SH - semi harmonic
PH - pitch harmonic
h - hammer on
p - pull off
b - bend
br - bendRelease
pb - preBend
pbr - preBendRelease
brb - bendReleaseBend
\n/ - tremolo bar dip
\n - tremolo bar dive
-/n - tremolo bar Release up
/n\ - tremolo bar inverted dip
/n - tremolo bar return
-\n - tremolo bar Release down
S - shift slide
s - legato slide
/ -  slide into from below or out of upwards
\ -  slide into from above or out of downwards
~ - vibrato
W - wide vibrato
tr - trill
TP - tremolo picking
T - tapping
S - slap
P - pop
< - fade in
^ - brush up
v - brush down





Comments


Popular Hammerfall tabs & chords
A Legend Reborn Tabs
Always Will Be Tabs
Any Means Necessary 2 Tabs
Blood Bound 4 Tabs
Fallen One 1 Tabs
One More Time Tabs
Raiders Of The Strorm Tabs
Remember Yesterday 1 Tabs
Secrets Tabs
Templars Of Steel Ukulele


Song lyrics



↑ Back to top | Tablatures and chords are parodies/interpretations of the original songs. You may use it for private study, scholarship, research or language learning purposes only
© 2014 AZChords.com Contact us | Privacy policy | DMCA | Add/correct tabs | Request tabs | Top 50 tabs