>
 >
Blood Bound 2

Blood Bound 2 Guitar Tabs

Hammerfall - Blood Bound 2 chords, tabs, tablatures, lyrics

Guitar lessons | Add/correct | Request | Top 50 tabs Artists:  A B C D E F G H I J K L M N O P Q R S T U V W X Y Z 0-9

Blood Bound 2 Guitar Tabs – Hammerfall

CD, Sheet music, Poster

Do you like Blood Bound 2? Share with your friends now
Bass TabsBass Tabs v2TabsTabs v2Tabs v3Tabs v4
     Band: HammerFall
                     Tuning: Standard

Ok, before people get all confused, I DID NOT TAB THIS WHOLE THING!!! I took 3 other
I found online (The main song, and 2 incomplete solo tabs) and I combined them into one
easy to read tab. Oh, and I also changed some stuff based on the live performances I 
up for this song. I changed stuff based on what I saw and it turned out great so ENJOY.

Thanks to the guys who made this possible!!!
_______________________________________________________

Intro                                Last 2 notes Played only First Time
|----------------------------------------------------------------------------|
|----------------------------------------------------------------------------|
|-9--9-12-11-12-9-12-9--9-12-11-12-9-12-8--8-8-9-9-11-9-12--11-9-14---12-11--|
|----------------------------------------------------------------------------|(x2)
|----------------------------------------------------------------------------|
|----------------------------------------------------------------------------|

|-------------------------------------------------|
|-------------------------------------------------|
|-------------------------------------------------|
|-----------------------------------------------7-|
|-2-2------2------2-2------2-----2-2------2-----5-|
|-0-0-0-0--0-0-0--0-0-0-0--0-3-2-0-0-0-0--0-0-0---|
      . .    . .      . .            . .    . .

|-------------------------------------------------|
|-------------------------------------------------|
|-------------------------------------------------|
|-----------------------------------------------7-|
|-2-2------2------2-2------2-----2-2------2-----5-|
|-0-0-0-0--0-0-0--0-0-0-0--0-3-2-0-0-0-0--0-0-0---|
      . .    . .      . .            . .    . .

|-------------------------------------------------|
|-------------------------------------------------|
|-------------------------------------------------|
|----------------------------------------5-----4--|
|-2-2------2------2-2------2-----2-2-----3-3-3-2--|
|-0-0-0-0--0-0-0--0-0-0-0--0-3-2-0-0-0-0----------|
      . .    . .      . .            . .   . .


|-------------------------------------------------|
|-------------------------------------------------|
|-------------------------------------------------|
|-----------------------------------------------7-|
|-2-2------2------2-2------2-----2-2------2-----5-|
|-0-0-0-0--0-0-0--0-0-0-0--0-3-2-0-0-0-0--0-0-0---|
      . .    . .      . .            . .    . .

|----------------------------------------------|
|----------------------------------------------|
|----------------------------------------------|
|-------------------------------------5-----4--|
|-2-2------2------2-2------2-----2-2--3-3-3-2--|
|-0-0-0-0--0-0-0--0-0-0-0--0-3-2-0-0-----------|
      . .    . .      . .               . .


Before Chorus
|----------------------------------------------|
|----------------------------------------------|
|----------------------------------------------|
|------7---------5--4-----4-----4--------------|
|-5----5------5--3--2-2-2-2-2-2-2-2-2-2-2-2----|
|-3-----------3---------------------0-0-0-0----|
                      . .   . .   . . . . .

Chorus
|------------------------|----------------------------------------|
|------------------------|----------------------------------------|
|------------------------|----------------------------------------|
|---------5--4--54-------|---------5--4--5------------------------|
|-5-4-2---3--2--32-2-2-2-|-5-4-2---3--2--3--5-4-2-----------------|
|-3-2-0------------0-0-0-|-3-2-0------------3-2-0--(Pick Slide)---|
                 . . . .

|-------------------------------------------------|
|-------------------------------------------------|
|-------------------------------------------------|
|-----------------------------------------------7-|
|-2-2------2------2-2------2-----2-2------2-----5-|
|-0-0-0-0--0-0-0--0-0-0-0--0-3-2-0-0-0-0--0-0-0---|
      . .    . .      . .            . .    . .

|-------------------------------------------------|
|-------------------------------------------------|
|-------------------------------------------------|
|----------------------------------------5-----4--|
|-2-2------2------2-2------2-----2-2-----3-3-3-2--|
|-0-0-0-0--0-0-0--0-0-0-0--0-3-2-0-0-0-0----------|
      . .    . .      . .            . .   . .

|----------------------------------------------|
|----------------------------------------------|
|----------------------------------------------|
|------7---------5--4-----4-----4--------------|
|-5----5------5--3--2-2-2-2-2-2-2-2-2-2-2-2----|
|-3-----------3---------------------0-0-0-0----|
                      . .   . .   . . . . .

Chorus
|------------------------|----------------------------------------|
|------------------------|----------------------------------------|
|------------------------|----------------------------------------|
|---------5--4--54-------|---------5--4--5------------------------|
|-5-4-2---3--2--32-2-2-2-|-5-4-2---3--2--3--5-4-2-----------------|
|-3-2-0------------------|-3-2-0------------3-2-0--(Pick Slide)---|
                 . . . .

|--------------------------------------------------|
|--------------------------------------------------|
|--------------------------------------------------|
|--------------------------------------------------|(x2)
|-4-----------5---4-----------5---4-----------5--2-|
|-2-2-2-2-2-2-3---2-2-2-2-2-2-3---2-2-2-2-2-2-3--0-|
    . . . . .       . . . . .       . . . . .

Solo Pt.1

E ||-------------------------------------------------------------------|
B ||--18\--6/18--18\--6/18--18\----------------------------------------|
G ||-----------------------------8/10--10h12--12h13--13/15---13p12---8-|
D ||-------------------------------------------------------------------|
A ||-------------------------------------------------------------------|
E ||-------------------------------------------------------------------|

E |--------------------------------------------------------------------|
B |--18\--6/18--18\--6/18--18\--------------------------------------18-|
G |-----------------------------8/10--10h12--12h13--13/15---13p12------|
D |--------------------------------------------------------------------|
A |--------------------------------------------------------------------|
E |--------------------------------------------------------------------|

Solo Pt.2

E |----------12t-14t-15t-14t-12t-15t-15t-14t-12t-14t-15t-14t-12t-----|
B |--12t-12t-----------------------------------------------------12t-|
G |------------------------------------------------------------------|
D |------------------------------------------------------------------|
A |------------------------------------------------------------------|
E |------------------------------------------------------------------|

E |--12t-10t-12t-13t---------12t-14t-15t-14t-12t---------12t-14t-15t-14t-12t-|
B |------------------12t-12t---------------------12t-12t---------------------|
G |--------------------------------------------------------------------------|
D |--------------------------------------------------------------------------|
A |--------------------------------------------------------------------------|
E |--------------------------------------------------------------------------|

E |--15t-15t-14t-12t-14t-15t-14t-12t---------------------15t-14t-12t-15t-15t-14t-|
B |----------------------------------12t-12t-10t-12t-13t-------------------------|
G |------------------------------------------------------------------------------|
D |------------------------------------------------------------------------------|
A |------------------------------------------------------------------------------|
E |------------------------------------------------------------------------------|

E |--12t-15t-17p15p14-12----19----------------------------------------||
B |-------------------------------------------------------------------||
G |-------------------------------------------------------------------||
D |-------------------------------------------------------------------||
A |-------------------------------------------------------------------||
E |-------------------------------------------------------------------||





Comments


Popular Hammerfall tabs & chords
I Believe Bass Tabs
Templars Of Steel Bass Tabs
Glory To The Brave 1 Chords
Any Means Necessary 1 Tabs
Carved In Stone Part 1 Tabs
Carved In Stone Part 3 Tabs
Hammerfall 1 Tabs
Rebel Inside Tabs
Take The Black Tabs
Trailblazers (Intro) Tabs


Song lyrics



↑ Back to top | Tablatures and chords are parodies/interpretations of the original songs. You may use it for private study, scholarship, research or language learning purposes only
© 2014 AZChords.com Contact us | Privacy policy | DMCA | Add/correct tabs | Request tabs | Top 50 tabs