» » »

Hammerfall, Between Two Worlds Tabs (ver.1)

Artists:  A B C D E F G H I J K L M N O P Q R S T U V W X Y Z # 

Between Two Worlds Tabs (ver.1)

Hammerfall Tabs
 Rating:
3.3/5 (6 votes)
Between Two Worlds lessons Tabs too difficult? Try these video lessons and learn fast
                Hammerfall - between two worlds

Tuning: one step down (D G C F A D)


Riff A
|----------------------------------------------------------------------------|
|-------------8-88888-88---------------6-66555-55---------------8-88888-8866-|
|-7-----7-----7-77777-7755-7-----7-----7-77777-7755-7-----7-----7-77777-7777-|
|-7-777-7-777-5-55555-5555-7-777-7-777-7-77777-7777-7-777-7-777-5-55555-5555-|
|-5-555-5-555-5-55555-5555-5-555-5-555-5-55555-5555-5-555-5-555-5-55555-5555-|
|-5-555-5-555--------------5-555-5-555--------------5-555-5-555--------------|
    ...   ...                ...   ...                ...   ...

 -----------------|
 -----------------|
 10-1010555-5577--|
 10-1010555-5577--|
 8--8-8-333-3355--|
 8--8-8-333-3355--|

   Riff B
|------------------5----------------------------------------|
|-----------------5--------3--------------------------------|
|-7--------------7---------5-----------5------------7-------|
|-7-------------7----------5-------------------5----7-------|
|-5------------5-----------3------------------------5-------|
|-5-----------5------------3------------------------5-------|

----------------------------------|
----------------------------------|
----------------------------------|
----3-33333-33555-55555-5555------|
----3-33333-33333-33333-3333------|
----1-11111-11033-33333-3333------|

   Riff C
|-------------------------------------------------------------------------|
|-------------------2-------------------------------------------------2---|
|-4-------4-2h4p2-----2----4-------4-2h4p2----------4-------4-2h4p2-----2-|
|-4-----4---------4--------4-----4---------4---4----4-----4---------4-----|
|-2------------------------2-----------------3------2---------------------|
|-2------------------------2------------------------2---------------------|

  ---3---------------------|
  -----3-------------------|
  -------3---7----7-7\555--|
  -5-------5-7----7-7\555--|
  -5-------5-5----5-5\333--|
  -3-------3-5----5-5\333--|
           . .
   Riff D
|-------------------------3-----------------------------------------|
|------------------------3-3----------------------------------------|
|-4-----4-----4---------3---3-4-----4-----4-------------------------|
|-4-444-4-444-4-444----5------4-444-4-444-4-444--5--5--5------------|
|-2-222-2-222-2-222---5-------2-222-2-222-2-222--5--5--5------------|
|-2-222-2-222-2-222--3--------2-222-2-222-2-222--3--3--3------------|
    ...   ...   ...  ...        ...   ...   ...
|-------------------------3--------------------------------|I
|------------------------3-3-------------------------------|I
|-4-----4-----4---------3---3------------------------------|I
|-4-444-4-444-4-444----5---------3--3--3--2--2--2--2-------|I
|-2-222-2-222-2-222---5---------4-4--4--4--4--4--4--4------|I
|-2-222-2-222-2-222--3--------44---4--4--4--4--4--4--4-----|I
    ...   ...   ...  ...

I---second ending-----------------|
I---------------------------------|
I---7--77777--77779--99999--9999--|
I---7--77777--77779--99999--9999--|
I---5--55555--55557--77777--7777--|
I---5--55555--55557--77777--7777--|


Riff E  (played over Riff A)
|-------------------------------------------------------------------------------|
|---/-/8-88888-6-5-8-88888-88888-88888-6-5-6-66655-55558-88888-6-5-8-88888-8866-|
|---/-/7-77777-7-7-7-77777-77777-77777-7-7-7-77755-55557-77777-7-7-7-77777-7777-|
|-------------------------------------------------------------------------------|
|-------------------------------------------------------------------------------|
|-------------------------------------------------------------------------------|

  -----------------|
  -----------------|
  10-1010555-5577--|
  10-1010555-5577--|
  8--8-8-333-3355--|
  8--8-8-333-3355--|

solo (played over riff B)


|-------------------------------------------------------|
|-------------------------------------------------------|
|---7~--------7-9-10--9qb^-----9rqb--9h10p9-5--7p5h7~---|
|-------------------------------------------------------|
|-------------------------------------------------------|
|-------------------------------------------------------|

--------------------/8-88888-6-5-------------------|
---------------5--6-------------/8-88888~~---------|
------------7--------------------------------------|
---------------------------------------------------|
---------------------------------------------------|
---------------------------------------------------|


|---9qb^999999999rb---11^qb111111111111111111rb---12^-rb--------------------|
|---------------------------------------------------------------------------|
|--------------------------------------------------------7-9-10-9-7-9-7--7~-|
|----------------------------------------------------------------------10---|
|---------------------------------------------------------------------------|
|---------------------------------------------------------------------------|

--------------------------------|
------------------------8--89qb-|
--------------------7--7-10-----|
-----------7--710710-10---------|
-/8--810810-10------------------|
---10---------------------------|
  .. .. .. .. .. .. .. .

In the distant maze, I see two doors
One leads to change, one leads to where I've been before
I am an angel, on broken wings
I am the beast, the devil and all in between
Nothing at all

It's never dark here, it's never light
Feeling like I'm caught between two worlds
Between two worlds

When the night comes down, the blade comes out
I wish, I wish, I wish I felt something at all
Nothing's wrong or right, nor black or white
Behind the hurt I see the lust come shining through
What do I do

Just like the rainbow, between mist and sun
Feeling like I'm trapped between two worlds
Between two worlds

[Solo]

Never laugh or smile, I never cry
My mind is numb, and I can't take it anymore
Screaming in frustration, no sound is heard
Am I asleep, or am I starring in a dream
Please wake me up

Sometimes the hunter, sometimes the prey
Feeling like I'm trapped, lost and never found
Feeling like I'm caught between two worlds
Without a home
            
Submit corrections

comments powered by Disqus
↑ Back to top | Hammerfall Tabs for Between Two Worlds. Lyrics for acoustic guitar and electric guitar. Tablatures and chords are parodies/interpretations of the original songs. You may use it for private study, scholarship, research or language learning purposes only