» » »

Back To Back Tabs (ver.2)

Artists:  A B C D E F G H I J K L M N O P Q R S T U V W X Y Z # 

Back To Back Tabs (ver.2)

Hammerfall
Rating:
0/5 (0 votes)

Hard to play? Try these video lessons and learn fast.
                Hammerfall – Back to Back

eb------------------------------------------------------------------
hb------------------------------------------------------------------
gb--------------------5-4-5-4--------------------5-4-5-4-12-11-9----
db-----2--------------5-4-5-4-5-4-2--------------5-4-5-4-12-11-9----
ab-\--/2--------------3-2-3-2-5-4-2--------------3-2-3-2-10-9--7----
eb-\--/0-0000000000000--------3-2-0-0000000000000--------------0-000
         .............              .............                ...
eb------------------------------------------------------------------
hb------------------------------------------------------------------
gb--------5-4-5-4--------------------5-4-5-4-5-7-9------------------
db--------5-4-5-4-5-4-2--------------5-4-5-4-5-7-9------------------
ab--------3-2-3-2-5-4-2--------------3-2-3-2-3-5-7------------------
eb-0000000--------3-2-0-0000000000000------------0-00000000000000000
   .......              .............              .................
eb-----------------
hb-----------------
gb----------------9
db----------------9
ab--77-99-1010-99-7
eb-----------------

VERSE

eb-------------------------------------------------------------------------
hb-------------------------------------------------------------------------
gb-----------------------------------------------9-7-5-7-9-----------------
db-----------------------------------------------9-7-5-7-9-----------------
ab-----------------------------------------------7-5-3-5-7-----------------
eb---0-0-0-0-0-0-0-0-0-0-0-0-0-0-0-0-0-0-0-0-0-0-----------0-0-0-0-0-0-0-0-
     . . . . . . . . . . . . . . . . . . . . . .           . . . . . . . . 
eb-------------------------------------------------------------------------
hb-------------------------------------------------------------------------
gb-----------------7---9---------9-----------------------------------------
db-----------------5-7-7-9-12-11-9-----------------------------------------
ab-------------------5---7-10--9-7-----------------------------------------
eb---0-0-0-0-0-0-0-----------------0-0-0-0-0-0-0-0-0-0-0-0-0-0-0-0-0-0-0-0-
     . . . . . . .                 . . . . . . . . . . . . . . . . . . . . 

INtro and Ref
            
Hard to play? Try these video lessons and learn fast. | Correct




comments powered by Disqus
↑ Back to top | Tablatures and chords are parodies/interpretations of the original songs. You may use it for private study, scholarship, research or language learning purposes only