>
 >
Back To Back

Back To Back Bass Tabs

Hammerfall - Back To Back chords, tabs, tablatures, lyrics

Guitar lessons | Add/correct | Request | Top 50 tabs Artists:  A B C D E F G H I J K L M N O P Q R S T U V W X Y Z 0-9

Back To Back Bass Tabs – Hammerfall

CD, Sheet music, Poster

Do you like Back To Back? Share with your friends now
Bass TabsTabsTabs v2Tabs v3
Tune Down

F#||-------------------|------------------------|-------------------|
C#||-------------------|------------------------|-------------------|
G#||-------------------|--3----2--3----2--------|-------------------|
D#||--0----------------|------------------3--2--|--0----------------|


                                                                      
------------------------|-------------------|------------------------|
------------------5--4--|-------------------|------------------------|
--3----2--3----2--------|-------------------|--3----2--3----2--------|
------------------------|--0----------------|------------------3--2--|


                                                                                
-------------------|------------------------|----------------------------------|
-------------------|------------------------|----------------------------------|
-------------------|--3----2--3----2--3--5--|--7-7-7-7-7-7-7-7-7-7-7-7-7-7-7-7-|
--0----------------|------------------------|----------------------------------|


                                                                        
------------------------------------|----------------------------------|
------------------------------------|----------------------------------|
--7-7-7-7-7-7-7-7-7-7-9-9-10-10-9-9-|----------------------------------|
------------------------------------|--0-0-0-0-0-0-0-0-0-0-0-0-0-0-0-0-|


                                                                  
------------------------------|----------------------------------|
------------------------------|----------------------------------|
------------------7-5--3---5--|----------------------------------|
--0-0-0-0-0-0-0-0-------------|--0-0-0-0-0-0-0-0-0-0-0-0-0-0-0-0-|


                                                             
--------------------------|---------------------------------|
----------5-------7-------|---------------------------------|
---------------5-------7--|--10--9--------------------------|
--0-0-0-0-----------------|---------0-0-0-0-0-0-0-0-0-0-0-0-|


                                                                  
------------------------------|----------------------------------|
------------------------------|----------------------------------|
------------------7-5--3---5--|--3-3-3-3-3-3-3-3-5-5-5-5-5-5-5-5-|
--0-0-0-0-0-0-0-0-------------|----------------------------------|


                                                                      
----------------------------------|----------------------------------|
----------------------------------|----------------------------------|
--------------5-5-7-7-------------|--3-3-3-3-3-3-3-3-5-5-5-5-5-5-5---|
--0-0-0-0-0-0---------0-0-0-0-0-0-|--------------------------------0-|


                                                                        
------------------------------------|----------------------------------|
------------------------------------|----------------------------------|
------------------7-7-9-9-10-10-9-9-|----------------------------------|
--0-0-0-0-0-0-0-0-------------------|--0-0-0-0-0-0-0-0-0-0-0-0-0-0-0-0-|


                                                                  
------------------------------|----------------------------------|
------------------------------|----------------------------------|
------------------7-5--3---5--|----------------------------------|
--0-0-0-0-0-0-0-0-------------|--0-0-0-0-0-0-0-0-0-0-0-0-0-0-0-0-|


                                                             
--------------------------|---------------------------------|
----------5-------7-------|---------------------------------|
---------------5-------7--|--10--9--------------------------|
--0-0-0-0-----------------|---------0-0-0-0-0-0-0-0-0-0-0-0-|


                                                                  
------------------------------|----------------------------------|
------------------------------|----------------------------------|
------------------7-5--3---5--|--3-3-3-3-3-3-3-3-5-5-5-5-5-5-5-5-|
--0-0-0-0-0-0-0-0-------------|----------------------------------|


                                                                      
----------------------------------|----------------------------------|
----------------------------------|----------------------------------|
--7-7-7-7-7-7-7-7-7-7-7-7-7-7-7-7-|--0-0-0-0-0-0-0-0-3-3-3-3-3-3-3-3-|
----------------------------------|----------------------------------|


                                                               
----------------------------------|---------------------------|
----------------------------------|---------------------------|
--5-5-5-5-5-5-5-5-7-7-7-7-7-7-7-7-|--3-3-3-3-3-3-3-3-5--------|
----------------------------------|---------------------------|


                                                                      
----------------------------------|----------------------------------|
----------------------------------|----------------------------------|
----------------------------------|----------------------------------|
--0-0-0-0-0-0-0-0-0-0-0-0-0-0-0-0-|--0-0-0-0-0-0-0-0-0-0-0-0-0-0-0-0-|


                                                                      
----------------------------------|----------------------------------|
----------------------------------|----------------------------------|
----------------------------------|----------------------------------|
--0-0-0-0-0-0-0-0-0-0-0-0-0-0-0-0-|--0-0-0-0-0-0-0-0-0-0-0-0-0-0-0-0-|


                                                                      
----------------------------------|----------------------------------|
----------------------------------|----------------------------------|
----------------------------------|----------------------------------|
--0-0-0-0-0-0-0-0-0-0-0-0-0-0-0-0-|--0-0-0-0-0-0-0-0-0-0-0-0-0-0-0-0-|


                                                                      
----------------------------------|----------------------------------|
----------------------------------|----------------------------------|
----------------------------------|----------------------------------|
--0-0-0-0-0-0-0-0-0-0-0-0-0-0-0-0-|--0-0-0-0-0-0-0-0-0-0-0-0-0-0-0-0-|


                                                                  
----------------------------------|------------------------------|
----------------------------------|------------------------------|
----------------------------------|------------------7-5--3---5--|
--0-0-0-0-0-0-0-0-0-0-0-0-0-0-0-0-|--0-0-0-0-0-0-0-0-------------|


                                                              
----------------------------------|--------------------------|
----------------------------------|----------5-------7-------|
----------------------------------|---------------5-------7--|
--0-0-0-0-0-0-0-0-0-0-0-0-0-0-0-0-|--0-0-0-0-----------------|


                                                                 
---------------------------------|------------------------------|
---------------------------------|------------------------------|
--10--9--------------------------|------------------7-5--3---5--|
---------0-0-0-0-0-0-0-0-0-0-0-0-|--0-0-0-0-0-0-0-0-------------|


                                                                      
----------------------------------|----------------------------------|
----------------------------------|----------------------------------|
--3-3-3-3-3-3-3-3-5-5-5-5-5-5-5-5-|--7-7-7-7-7-7-7-7-7-7-7-7-7-7-7-7-|
----------------------------------|----------------------------------|


                                                                      
----------------------------------|----------------------------------|
----------------------------------|----------------------------------|
--0-0-0-0-0-0-0-0-3-3-3-3-3-3-3-3-|--5-5-5-5-5-5-5-5-7-7-7-7-7-7-7-7-|
----------------------------------|----------------------------------|


                                                               
---------------------------|----------------------------------|
---------------------------|----------------------------------|
--3-3-3-3-3-3-3-3-5--------|----------------------------------|
---------------------------|--0-0-0-0-0-0-0-0-0-0-0-0-0-0-0-0-|


                                                                      
----------------------------------|----------------------------------|
----------------------------------|----------------------------------|
----------------------------------|----------------------------------|
--0-0-0-0-0-0-0-0-0-0-0-0-0-0-0-0-|--0-0-0-0-0-0-0-0-0-0-0-0-0-0-0-0-|


                                                                      
----------------------------------|----------------------------------|
----------------------------------|----------------------------------|
----------------------------------|----------------------------------|
--0-0-0-0-0-0-0-0-0-0-0-0-0-0-0-0-|--0-0-0-0-0-0-0-0-0-0-0-0-0-0-0-0-|


                                                                      
----------------------------------|----------------------------------|
----------------------------------|----------------------------------|
----------------------------------|----------------------------------|
--0-0-0-0-0-0-0-0-0-0-0-0-0-0-0-0-|--0-0-0-0-0-0-0-0-0-0-0-0-0-0-0-0-|


                                                                        
----------------------------------||-----------------------------------|
----------------------------------||*----------------------------------|
----------------------------------||*----------------------------------|
--0-0-0-0-0-0-0-0-0-0-0-0-0-0-0-0-||---0-0-0-0-0-0-0-0-0-0-0-0-0-0-0-0-|


                                   3x                           
-----------------------------------||--------------------------|
----------------------------------*||--------------------------|
----------------------------------*||--3-3-3-3---------3-3-3-3-|
--0-0-0-0-0-0-0-0-0-0-0-0-0-0-0-0--||--------------------------|


                                                              
----------------------------------|--------------------------|
----------------------------------|--------------------------|
--3-5-5-5-5-5-5-5-5-5-5-5-5-5-3-3-|--3-3---------3-3-3-3-3-3-|
----------------------------------|--------------------------|


                                                              
--------------------------|----------------------------------|
--------------------------|----------------------------------|
--5-5-5-5-5-5-2-2-3-3-5-5-|----------------------------------|
--------------------------|--0-0-0-0-0-0-0-0-0-0-0-0-0-0-0-0-|


                                                                      
----------------------------------|----------------------------------|
----------------------------------|--0-0-0-0-0-0-0-0-0-0-0-0-0-0-0-0-|
--3-3-3-3-3-3-3-3-3-3-3-3-3-3-3-3-|----------------------------------|
----------------------------------|----------------------------------|


                                                                      
----------------------------------|----------------------------------|
--0-0-0-0-----------------2-2-2-2-|--2-2-2-2-2-2-2-2-2-2-2-2-2-2-2-2-|
------------------2-2-2-2---------|----------------------------------|
----------3-3-3-3-----------------|----------------------------------|


                                                                      
----------------------------------|----------------------------------|
----------------------------------|--0-0-0-0-0-0-0-0-0-0-0-0-0-0-0-0-|
--3-3-3-3-3-3-3-3-3-3-3-3-3-3-3-3-|----------------------------------|
----------------------------------|----------------------------------|


                                                                      
----------------------------------|----------------------------------|
----------------------------------|----------------------------------|
------------------2-2-2-2-2-2-2-2-|----------------------------------|
--3-3-3-3-3-3-3-3-----------------|--0-0-0-0-0-0-0-0-0-0-0-0-0-0-0-0-|


                                                                      
----------------------------------|----------------------------------|
----------------------------------|--0-0-0-0-0-0-0-0-0-0-0-0-0-0-0-0-|
--3-3-3-3-3-3-3-3-3-3-3-3-3-3-3-3-|----------------------------------|
----------------------------------|----------------------------------|


                                                                      
----------------------------------|----------------------------------|
--0-0-0-0-----------------2-2-2-2-|--2-2-2-2-2-2-2-2-2-2-2-2-2-2-2-2-|
------------------2-2-2-2---------|----------------------------------|
----------3-3-3-3-----------------|----------------------------------|


                                                                      
----------------------------------|----------------------------------|
----------------------------------|----------------------------------|
--3-3-3-3-3-3-3-3-3-3-3-3-3-3-3-3-|--3-3-3-3-3-3-3-3-3-3-3-3-3-3-3-3-|
----------------------------------|----------------------------------|


                                                                      
----------------------------------|----------------------------------|
--0-0-0-0-0-0-0-0-0-0-0-0-0-0-0-0-|--0-0-0-0-0-0-0-0-0-0-0-0-0-0-0-0-|
----------------------------------|----------------------------------|
----------------------------------|----------------------------------|


                                                          
----------------------|----------------------------------|
----------------------|----------------------------------|
----------------------|--3-3-3-3-3-3-3-3-5-5-5-5-5-5-5-5-|
--0----2----3----5----|----------------------------------|


                                                                      
----------------------------------|----------------------------------|
----------------------------------|----------------------------------|
--3-3-3-3-3-3-3-3-5-5-5-5-5-5-5-5-|--3-3-3-3-3-3-3-3-5-5-5-5-5-5-5-5-|
----------------------------------|----------------------------------|


                                                                  
----------------------------------|------------------------------|
----------------------------------|------------------------------|
----------------------------------|------------------7-5--3---5--|
--0-0-0-0-0-0-0-0-0-0-0-0-0-0-0-0-|--0-0-0-0-0-0-0-0-------------|


                                                              
----------------------------------|--------------------------|
----------------------------------|----------5-------7-------|
----------------------------------|---------------5-------7--|
--0-0-0-0-0-0-0-0-0-0-0-0-0-0-0-0-|--0-0-0-0-----------------|


                                                                 
---------------------------------|------------------------------|
---------------------------------|------------------------------|
--10--9--------------------------|------------------7-5--3---5--|
---------0-0-0-0-0-0-0-0-0-0-0-0-|--0-0-0-0-0-0-0-0-------------|


                                                                      
----------------------------------|----------------------------------|
----------------------------------|----------------------------------|
--3-3-3-3-3-3-3-3-5-5-5-5-5-5-5-5-|--7-7-7-7-7-7-7-7-7-7-7-7-7-7-7-7-|
----------------------------------|----------------------------------|


                                                                      
----------------------------------|----------------------------------|
----------------------------------|----------------------------------|
--0-0-0-0-0-0-0-0-3-3-3-3-3-3-3-3-|--5-5-5-5-5-5-5-5-7-7-7-7-7-7-7-7-|
----------------------------------|----------------------------------|


                                                               
---------------------------|----------------------------------|
---------------------------|----------------------------------|
--3-3-3-3-3-3-3-3-5--------|----------------------------------|
---------------------------|--0-0-0-0-0-0-0-0-0-0-0-0-0-0-0-0-|


                                                                      
----------------------------------|----------------------------------|
----------------------------------|----------------------------------|
----------------------------------|----------------------------------|
--0-0-0-0-0-0-0-0-0-0-0-0-0-0-0-0-|--0-0-0-0-0-0-0-0-0-0-0-0-0-0-0-0-|


                                                                      
----------------------------------|----------------------------------|
----------------------------------|----------------------------------|
----------------------------------|----------------------------------|
--0-0-0-0-0-0-0-0-0-0-0-0-0-0-0-0-|--0-0-0-0-0-0-0-0-0-0-0-0-0-0-0-0-|


                                                                      
----------------------------------|----------------------------------|
----------------------------------|----------------------------------|
----------------------------------|----------------------------------|
--0-0-0-0-0-0-0-0-0-0-0-0-0-0-0-0-|--0-0-0-0-0-0-0-0-0-0-0-0-0-0-0-0-|


                                                                               
----------------------------------|----------------------|--------------------|
----------------------------------|----------------------|--------------------|
----------------------------------|--7----7----7----7----|-----------3--------|
--0-0-0-0-0-0-0-0-0-0-0-0-0-0-0-0-|----------------------|--0-----------------|


                                             
-------------------------|----------|------||
-------------------------|----------|------||
--5--------7--5--7-------|----------|------||
-------------------------|----------|------||





Comments


Popular Hammerfall tabs & chords
Born To Rule Bass Tabs
Trailblazers Bass Tabs
No Sacrifice No Victory Chords
Blood Bound Tabs
Bring The Hammer Down Tabs
Crimson Thunder Tabs
Fury Of The Wild Tabs
Imperial Tabs
Imperial 1 Tabs
Rebel Inside Tabs


Song lyrics



↑ Back to top | Tablatures and chords are parodies/interpretations of the original songs. You may use it for private study, scholarship, research or language learning purposes only
© 2014 AZChords.com Contact us | Privacy policy | DMCA | Add/correct tabs | Request tabs | Top 50 tabs