>
 >
Always Will Be

Always Will Be Bass Tabs

Hammerfall - Always Will Be chords, tabs, tablatures, lyrics

Guitar lessons | Add/correct | Request | Top 50 tabs Artists:  A B C D E F G H I J K L M N O P Q R S T U V W X Y Z 0-9

Always Will Be Bass Tabs – Hammerfall

CD, Sheet music, Poster

Do you like Always Will Be? Share with your friends now
Bass TabsChordsChords v2TabsTabs v2Ukulele
G||------|------|------|------|------|------|------|------|------|------|------|
D||------|------|------|------|------|------|------|------|------|------|------|
A||------|------|------|------|------|------|------|------|------|------|------|
E||------|------|------|------|------|------|------|------|------|------|------|



                                                                       
------|--------------------|--------------------|---------------------|
------|--------------------|--------------------|---------------------|
------|--5------------5----|--5------------5----|--3------------3--0--|
------|--------------------|--------------------|---------------------|


                                                               
--------------------|--------------------|--------------------|
--------------------|--------------------|--------------------|
--0------------0----|--5------------5----|--5------------5----|
--------------------|--------------------|--------------------|


                                                                
---------------------|--------------------|--------------------|
---------------------|--------------------|--------------------|
------------------3--|--3------------3----|--5------------5----|
--1------------1-----|--------------------|--------------------|


                                                                
--------------------|---------------------|--------------------|
--------------------|---------------------|--------------------|
--5------------5----|--3------------3--0--|--0------------0----|
--------------------|---------------------|--------------------|


                                                                
--------------------|--------------------|---------------------|
--------------------|--------------------|---------------------|
--5------------5----|--5------------5----|------------------3--|
--------------------|--------------------|--1------------1-----|


                                                               
--------------------|--------------------|--------------------|
--------------------|--------------------|--------------------|
--3------------3----|--------------------|--------------------|
--------------------|--5--------5--------|--5------------5----|


                                                               
--------------------|--------------------|--------------------|
--------------------|--------------------|--------------------|
--------------------|--------------------|--------------------|
--3--------3--------|--3------------3----|--1--------1--------|


                                                               
--------------------|--------------------|--------------------|
--------------------|--------------------|--------------------|
--------------------|--3--------3--------|--3--------2--------|
--1------------1----|--------------------|--------------------|


                                                               
--------------------|--------------------|--------------------|
--------------------|--------------------|--------------------|
--------------------|--------------------|--------------------|
--5--------5--------|--5------------5----|--3--------3--------|


                                                               
--------------------|--------------------|--------------------|
--------------------|--------------------|--------------------|
--------------------|--3--------3--------|--3------------3----|
--3------------3----|--------------------|--------------------|


                                                              
-------------------|------------------|----------------------|
-------------------|------------------|----------------------|
--5----------------|------------------|----------------------|
-------------------|------------------|--1----1----1----1----|


                                                                     
----------------------|----------------------|----------------------|
----------------------|----------------------|----------------------|
----------------------|----------------------|----------------------|
--5----5----5----5----|--1----1----5----5----|--3----3----3----3----|


                                                                     
----------------------|----------------------|----------------------|
----------------------|----------------------|----------------------|
--5----5----5----5----|----------------------|----------------------|
----------------------|--1----1----3----3----|--5----5----5----5----|


                                                                     
----------------------|----------------------|----------------------|
----------------------|----------------------|----------------------|
----------------------|----------------------|----------------------|
--1----1----1----1----|--5----5----5----5----|--1----1----5----5----|


                                                                     
----------------------|----------------------|----------------------|
----------------------|----------------------|----------------------|
----------------------|--5----5----5----5----|----------------------|
--3----3----3----3----|----------------------|--1----1----3----3----|


                                                                 
----------------------|------------------|----------------------|
----------------------|------------------|----------------------|
----------------------|------------------|--3--------3----3--3--|
--5----5----5----5----|------------------|----------------------|


                                                                     
----------------------|----------------------|----------------------|
----------------------|----------------------|----------------------|
--5--------5----5--5--|--2--------2----2--2--|----------------------|
----------------------|----------------------|--0--------0----0--0--|


                                                                     
----------------------|----------------------|----------------------|
----------------------|----------------------|----------------------|
----------------------|--5--------5----5--5--|--2--------2----2--2--|
--3--------3----3--3--|----------------------|----------------------|


                                                                     
----------------------|----------------------|----------------------|
----------------------|----------------------|----------------------|
--2--------2----2--2--|--3--------3----3--3--|--5--------5----5--5--|
----------------------|----------------------|----------------------|


                                                                     
----------------------|----------------------|----------------------|
----------------------|----------------------|----------------------|
--2--------2----2--2--|----------------------|----------------------|
----------------------|--0--------0----0--0--|--1--------1----1--1--|


                                                              
----------------------|-------------------|------------------|
----------------------|-------------------|------------------|
--3--------3----3--3--|-------------------|------------------|
----------------------|--3----------------|------------------|


                                                                     
----------------------|----------------------|----------------------|
----------------------|----------------------|----------------------|
----------------------|----------------------|----------------------|
--1----1----1----1----|--5----5----5----5----|--1----1----5----5----|


                                                                     
----------------------|----------------------|----------------------|
----------------------|----------------------|----------------------|
----------------------|--5----5----5----5----|----------------------|
--3----3----3----3----|----------------------|--1----1----3----3----|


                                                                     
----------------------|----------------------|----------------------|
----------------------|----------------------|----------------------|
----------------------|----------------------|----------------------|
--5----5----5----5----|--1----1----1----1----|--5----5----5----5----|


                                                                     
----------------------|----------------------|----------------------|
----------------------|----------------------|----------------------|
----------------------|----------------------|--5----5----5----5----|
--1----1----5----5----|--3----3----3----3----|----------------------|


                                                              
----------------------|-------------------|------------------|
----------------------|-------------------|------------------|
----------------------|-------------------|------------------|
--1----1----3----3----|--5----------------|------------------|


                                                                     
----------------------|----------------------|----------------------|
----------------------|----------------------|----------------------|
----------------------|--1----1----1----1----|------------1----1----|
--2----2----2----2----|----------------------|--2----2--------------|


                                                                     
----------------------|----------------------|----------------------|
----------------------|----------------------|----------------------|
----------------------|--6----6----6----6----|----------------------|
--4----4----4----4----|----------------------|--2----2----4----4----|


                                                                     
----------------------|----------------------|----------------------|
----------------------|----------------------|----------------------|
----------------------|----------------------|--1----1----1----1----|
--6----6----6----6----|--2----2----2----2----|----------------------|


                                                                     
----------------------|----------------------|----------------------|
----------------------|----------------------|----------------------|
------------1----1----|----------------------|--6----6----6----6----|
--2----2--------------|--4----4----4----4----|----------------------|


                                                                     
----------------------|----------------------|----------------------|
----------------------|----------------------|----------------------|
----------------------|----------------------|----------------------|
--2----2----4----4----|--6----6----6----6----|--6----6----6----6----|


                                                              
-------------------|--------------------|-------------------||
-------------------|--------------------|-------------------||
--6----------------|--------------------|--4----------------||
-------------------|--2--------4--------|-------------------||





Comments


Popular Hammerfall tabs & chords
At The End Of The Rainbow Bass Tabs
Last Man Standing Chords
No Sacrifice No Victory Chords
Dark Wings, Dark Words Tabs
Legacy Of Kings Tabs
Life Is Now Tabs
Raiders Of The Storm Tabs
Shadow Empire Intro Tabs
Steel Meets Steel Tabs
Nr Vindarna Viskar Mitt Namn Ukulele


Song lyrics



↑ Back to top | Tablatures and chords are parodies/interpretations of the original songs. You may use it for private study, scholarship, research or language learning purposes only
© 2014 AZChords.com Contact us | Privacy policy | DMCA | Add/correct tabs | Request tabs | Top 50 tabs