>
 >
KjæRlighetsvisa

KjæRlighetsvisa Guitar Tabs

Halvdan Sivertsen - KjæRlighetsvisa chords, tabs, tablatures, lyrics

Guitar lessons | Add/correct | Request | Top 50 tabs Artists:  A B C D E F G H I J K L M N O P Q R S T U V W X Y Z 0-9

KjæRlighetsvisa Guitar Tabs – Halvdan Sivertsen

CD, Sheet music, Poster

Do you like KjæRlighetsvisa? Share with your friends now
ChordsTabs
-------------------------------------------------------------------------------
-------------------------------------------------------------------------------

One of the best norwegian songs ever written, perfect if you want to impress a girl (she 
melt) and a great summer tune.

This is how I remember hearing it, with something like the fingerpick tabbed here. It's 
perfect to strum using the chords or make up your own fingerpicking style - just ad some 
here and there. I whould love to here your version on it, or any feedback at all.

        C            G            AM           AM

e|----|-0-------0----3-------3----0-------0----0------0-|
B|----|-----1------------0------------1------1----1-----|
G|----|-------0------------0------------2-----------2---|
D|----|-------------------------------------------------|
A|----|-3-------------------------0------------0--------|
E|----|--------------3----------------------------------|
  Når   sommerdagen  ligg utover  landet               og

   DM           G7           C            C

e|-1-------1----1-------1p0--0-------0----0------0-|
B|-----3------------0------------1------1----1-----|
G|-------2------------0------------0-----------0---|
D|-0-----------------------------------------------|
A|---------------------------3------------3--------|
E|--------------3----------------------------------|
   du å æ har   funne oss ei strand.              Og

   G            E            AM           AM

e|-3-------3----0-------0----0-------0----0------0-|
B|-----0------------0------------1------1----1-----|
G|-------0------------1------------2-----------2---|
D|----------------------------------------2--------|
A|--------------2------------0---------------------|
E|-3-----------------------------------------------|
   fire kalde   pils ligg neri vannet             og

   D7           D7           G            G

e|-2-------2----2-------2/3--3-------3----3------3-|
B|-----1------1-----1------------0------0----0-----|
G|-------2------------2------------0-----------0---|
D|-0------------0----------------------------------|
A|-------------------------------------------------|
E|---------------------------3------------3--------|
   vi e brun og fin å hand i hand.                Når


   G7           G7           C            C

e|-1-------1----1-------1----0-------0----0------0-|
B|-----0------0-----0------------1------1----1-----|
G|-------0------------0------------0-----------0---|
D|-------------------------------------------------|
A|---------------------------3------------3--------|
E|-3------------3----------------------------------|
   vi har prata om ei bok vi lika                 og

   G7           G7           AM           AM

e|-1-------1----1-------1----0-------0----0------0-|
B|-----0------0-----0------------1------1----1-----|
G|-------0------------0------------2-----------2---|
D|-------------------------------------------------|
A|---------------------------0------------0--------|
E|-3------------3----------------------------------|
   alt e bra og ikke tell å  tru.

   D7           C     G      AM           EM

e|-2-------2----0-----3------0-------0----0------0-|
B|-----1-----------0-----0-------1-----------0-----|
G|-------2-------------------------2-----------0---|
D|-0-----------------------------------------------|
A|--------------3------------0------------2--------|
E|--------------------3----------------------------|
   Ingen e så   go    som    du           da

   D7           C     G7     C

e|-2-------2----0----------------------------------|
B|-----1-----------1--0------1------1-----1------1-|
G|-------2---------------0------0------------0-----|
D|-0------------------------------2------------2---|
A|--------------3------------0------------0--------|
E|--------------------3----------------------------|
   ingen e så   go    som    du.

(It's the same for the rest of the song)

verse 2

Og når høsten finns og hverdagslive venta
Og fuglan tar te vett å flyg mot sør
Og vi får slit med regninga og renta
Og meininga forsvinn i d vi gjør
Når vi må over mang en liten avgrunn
Og ofte på ei falleferdig bru
Ingen e så go som du da
Ingen e så go som du

verse 3

Men av og tel når tegnan blir for tydli
Og dem som sitt me makta gjør mæ skræmt
Når de fine ordan demmes blir motbydli
Og tankan bak e jævli dårlig gjæmt
Da har æ ei som vet at folk vil vokne
Og at veien ifra høyre snart må snu
Ingen e så go som du da
Ingen e så go som du

verse 4

Og når æ kryp te køys å frys på beina
Og du har lagt dæ før mæ og e varm
Da vet du æ e litn og aleina
Og låne mæ litt dyne og ei arm
Og dagen den e vikti og den kræv oss
Men natta den e din og min og nu
Ingen e så go som du da
Ingen e så go som du


| /  slide up
| p  pull-off

===============================================================================





Comments


Popular Halvdan Sivertsen tabs & chords
KjæRlighetsvisa Chords
Kjwrlighetsvisa Chords
Nordnorsk Julesalme Chords
Sommerfuggel I Vinterland Chords
Ti Tusen Tommeltotta Chords
Kjrlighetsvisa Ukulele
Kjwrlighetsvisa Ukulele
Nordnorsk Julesalme Ukulele
Sommerfuggel I Vinterland Ukulele
Ti Tusen Tommeltotta Ukulele


Song lyrics



↑ Back to top | Tablatures and chords are parodies/interpretations of the original songs. You may use it for private study, scholarship, research or language learning purposes only
© 2014 AZChords.com Contact us | Privacy policy | DMCA | Add/correct tabs | Request tabs | Top 50 tabs