>
 >
Me Vs. The World

Me Vs. The World Guitar Tabs

Halo Friendlies - Me Vs. The World chords, tabs, tablatures, lyrics

Guitar lessons | Add/correct | Request | Top 50 tabs Artists:  A B C D E F G H I J K L M N O P Q R S T U V W X Y Z 0-9

Me Vs. The World Guitar Tabs – Halo Friendlies

CD, Sheet music, Poster

Do you like Me Vs. The World? Share with your friends now
ChordsTabsTabs v2
-------------------------------------------------------------------------------
-------------------------------------------------------------------------------

Tuning: Standard

V.simple yet awesome song!

Intro is done on drums then straight into verse 1

Verse 1:
" hey boys, hey girls..."
e|--------------------------|
B|--------------------------|  
G|----5-----7-----9----10---|
D|----5-----7-----9----10---|       x2
A|----3-----5-----7----8----|
E|--------------------------|

"I fell out of..."
e|---------------------------------------|
B|---------------------------------------|  
G|----5-------7-------9-------10---------|
D|----5-(x4)--7-(x4)--9-(x4)--10-(x4)----|      x2
A|----3-------5-------7-------8----------|
E|---------------------------------------|

"I'm tryin to be nice..."
e|----------------------------------------------------------------|
B|----------------------------------------------------------------|
G|-----------5-----------------------------------5------4--5------|
D|---5-------5(x8)--3---------2------3----------5-(x5)-4--5-(x8)-|
A|---5-(x8)--3-------3-(x16)---2-(x8)-3-(x8)-----3------2--3------|
E|---3---------------1---------0------1---------------------------|
       faster and palm muted                     open chords

e|-------------------------------------------------------------------|
B|-------------------------------------------------------------------| 
G|----------5--------------------------------------5-------3---------|
D|--5-------5--(x8)----3--------2--------3---------5-(x5)--3-(x5)----|
A|--5-(x8)--3----------3-(x16)--2-(x8)---3-(x8)----3-------1---------| 
E|--3------------------1--------0--------1---------------------------|
    Back to muted                                 open chords

Chorus
"Cos its me..."
e|-----------------------------------------------------------------------------------|
B|-----------------------------------------------------------------------------------| 
G|----5------------------------5-----------------------5-----------------------------|
D|----5-(x5)-5-----3-----5-----5-(x5)5-----3-----5-----5-(x5)5-----7------3----------|
A|----3------5-(x5)3-(x5)5-(x5)3-----5-(x5)3-(x5)5-(x5)3-----5-(x5)7-(x5)-3-(x5)-----|
E|-----------3-----1-----3-----------3-----1-----3-----------3-----5------1----------|

     Listen for the rhythm



e|-----------------------------------------------------------------------------------|
B|-----------------------------------------------------------------------------------|
G|----5------------------------------------------------------------------------------|
D|----5-(x5)--5----------3--------5--------------------------------------------------|
A|----3-------5-(x5)-----3-(x5)---5--------------------------------------------------|
E|------------3----------1--------3--------------------------------------------------|

                                                  Palm mute last chord in chorus

Solo
e|---3--1-1--0-0--------3-3--1-1--0-0-------3-3--1-1--0-0---------------------------|
B|---------------1-1------------------1-1-------------------1-1---3-3--1-1--3-3-1-1-|
G|----------------------------------------------------------------------------------|  x2
D|----------------------------------------------------------------------------------|
A|----------------------------------------------------------------------------------|
E|----------------------------------------------------------------------------------|

Verse 2:
"You should..."
e|---------------------------------------------|
B|---------------------------------------------|  
G|----5----------7-----------9---------10------|
D|----5--(x2)----7--(x2)-----9--(x2)---10-(x2)-|       x2
A|----3----------5-----------7----------8------|
E|---------------------------------------------|
Slightly offbeat

"I'm slammin..."
e|---------------------------------------|
B|---------------------------------------|  
G|----5-------7-------9-------10---------|
D|----5-(x4)--7-(x4)--9-(x4)--10-(x4)----|      x2
A|----3-------5-------7-------8----------|
E|---------------------------------------|
	
"I'm tryin to be nice..."
e|---------------------------------------------------------------------------------|
B|---------------------------------------------------------------------------------|
G|--------------5-----------------------------------------5-------4--5-------------|
D|---5----------5(x8)------3---------2---------3---------5-(x5)--4--5-(x8)--------|
A|---5- (x8)----3-----------3-(x16)---2-(x8)----3-(x8)----3-------2--3-------------|
E|---3----------------------1---------0---------1----------------------------------|
       faster and palm muted                                          open chords

e|---------------------------------------------------------------------------------|
B|---------------------------------------------------------------------------------| 
G|--------------5---------------------------------------5--------3-----------------|
D|---5----------5(x8)----3---------2---------3---------5-(x5)---3-(x5)------------|
A|---5- (x8)----3---------3-(x16)---2-(x8)----3-(x8)----3--------1-----------------| 
E|---3--------------------1---------0---------1------------------------------------|
      Back to muted                                                     open chords


Chorus again

	             "im gonna be..."
e|-------------------------------------------------------------------------------|
B|-------------------------------------------------------------------------------|
G|-5-5-5------5-5-5-----------5-5-5------7-7-7-------9-9-9--------10-10--10------|
D|-5-5-5-(x8)-5-5-5-(x16)-----5-5-5-(x4)-7-7-7-(x4)--9-9-9-(x4)---10-10--10-(x2)-|
A|-3-3-3------3-3-3-----------3-3-3------5-5-5-------7-7-7--------8---8---8------|
E|-------------------------------------------------------------------------------|


Final Chorus
"Cause its me..."

e|--------------------------------------------------------------------------------------|
B|--------------------------------------------------------------------------------------| 
G|--5---------------------------5-----------------------------5-------------------------|
D|--5-(x5)-5------3------5------5-(x5)-5------3-------5-------5-(x5)-5------7------3----|
A|--3------5-(x5)-3-(x5)-5-(x5)-3------5-(x5)-3-(x5)--5-(x5)--3------5-(x5)-7-(x5)-3-(x5)-|
E|---------3------1------3-------------3------1-------3--------------3------5------1----|

     Listen for the rhythm
e|--------------------------------------------------------------------------------------|
B|--------------------------------------------------------------------------------------| 
G|--5---------------------------5---------------------------5---------------------------|
D|--5-(x5)-5-----3------5-------5-(x5)-5------3------5------5-(x5)-5------7------3------|
A|--3------5-(x5)3-(x5)-5-(x5)--3------5-(x5)-3-(x5)-5-(x5)-3------5-(x5)-7-(x5)-3-(x5)-|
E|---------3-----1------3--------------3------1------3-------------3------5------1------|




e|---------------------------------------------------------------------------|
B|---------------------------------------------------------------------------|
G|----5------------------------------5---------------------------------------|
D|----5-(x5)--5---------3-------5----5---------------------------------------|
A|----3-------5-(x5)----3-(x5)--5----3---------------------------------------|
E|------------3---------1-------3--------------------------------------------|
			        Let last note ring





Comments


Popular Halo Friendlies tabs & chords
Just Like You Chords
Me Vs. The World Chords
Just Like You Tabs
Let's Be Friends Tabs
Me Vs. The World 1 Tabs
Sellout Tabs
Unsaid Goodbyes Tabs
Just Like You Ukulele
Me Vs The World Ukulele


Song lyrics



↑ Back to top | Tablatures and chords are parodies/interpretations of the original songs. You may use it for private study, scholarship, research or language learning purposes only
© 2014 AZChords.com Contact us | Privacy policy | DMCA | Add/correct tabs | Request tabs | Top 50 tabs