>
 >
Unforgotten

Unforgotten Guitar Tabs

Halo - Unforgotten chords, tabs, tablatures, lyrics

Guitar lessons | Add/correct | Request | Top 50 tabs Artists:  A B C D E F G H I J K L M N O P Q R S T U V W X Y Z 0-9

Unforgotten Guitar Tabs – Halo

CD, Sheet music, Poster

Do you like Unforgotten? Share with your friends now
Tabs
Unforgotten/Never Forget Guitar Cover
Halo 2 Original Soundtrack
Bungie

Music by Marty O'Donnell
Exported from my full Unforgotten GP5 file

Drop D (Capo 1)

     <                                                              
     H.               H.              H.              H.            
E||---------------|----------------|---------------|---------------|
B||---------------|----------------|---------------|---------------|
G||---------------|----------------|---------------|---------------|
D||--5------------|--12------------|--4------------|--L------------|
A||---------------|----------------|---------------|---------------|
D||--2------------|--10------------|--0------------|--L------------|


  H.               H         Q       H.              H.            
---------------|------------------|---------------|---------------|
---------------|------------------|---------------|---------------|
---------------|------------------|---------------|---------------|
--5------------|--14--------12----|--4------------|--L------------|
---------------|------------------|---------------|---------------|
--2------------|--10--------------|--0------------|--L------------|


  H        Q       H        Q        H.              H        Q     
----------------|----------------|----------------|----------------|
--5--------7----|--8-------------|--10------------|--8--------7----|
----------------|-----------7----|----------------|----------------|
----------------|----------------|----------------|----------------|
----------------|----------------|----------------|----------------|
--2-------------|--5-------------|---0------------|--5-------------|


  H.              H.               H.              H.            
---------------|----------------|---------------|---------------|
--5------------|--3S------------|--5------------|--L------------|
---------------|----------------|---------------|---------------|
---------------|----------------|---------------|---------------|
---------------|----------------|--0------------|--L------------|
--2------------|--0-------------|---------------|---------------|


  <                                                                             
  H.              H.              H.              H.              H.            
---------------|---------------|---------------|---------------|---------------|
---------------|---------------|--5------------|--L------------|---------------|
---------------|---------------|---------------|---------------|---------------|
--4------------|--5------------|---------------|---------------|--4------------|
---------------|---------------|--0------------|--L------------|---------------|
--0------------|--2------------|---------------|---------------|--0------------|


  H.              H.              H.              H.            
---------------|---------------|---------------|---------------|
---------------|--5------------|--L------------|---------------|
---------------|---------------|---------------|---------------|
--5------------|---------------|---------------|---------------|
---------------|--0------------|--L------------|---------------|
--2------------|---------------|---------------|---------------|


  E  E  H            E   E   H           E  E  H           E  E  E  E  E   E   
-----------------|--------------------|-----------------|-----------0--2S--5--|
-----------------|--------------------|-----------------|---------------------|
-----------------|--------------------|-----------------|---------------------|
--------5--------|----------12--------|--------4--------|--------4------------|
-----2-----------|------10------------|-----0-----------|-----0---------------|
--2--------------|--10----------------|--0--------------|--0------------------|


  Q    Q.     E     Q    Q.     E     H.              H.            
--3-----------3--|--2-----------0--|---------------|---------------|
-------0---------|-----------------|--3------------|--L------------|
-----------------|-------2---------|---------------|---------------|
-----------------|-----------------|---------------|---------------|
-----------------|-----------------|---------------|---------------|
--2--------------|--0--------------|--0------------|--L------------|


  H.              E  E  H            E   E   H           E  E  H         
---------------|-----------------|--------------------|-----------------|
---------------|-----------------|--------------------|-----------------|
---------------|-----------------|--------------------|-----------------|
---------------|--------5--------|----------12--------|--------4--------|
---------------|-----2-----------|------10------------|-----0-----------|
---------------|--2--------------|--10----------------|--0--------------|


  E  E  E  E  E   E     Q    Q.     E     Q    Q.     E     H        E  E   
-----------0--2S--5--|--3-----------3--|--2-----------0--|-----------------|
---------------------|-------0---------|-----------------|--3--------------|
---------------------|-----------------|-------2---------|-----------------|
--------4------------|-----------------|-----------------|-----------0--2--|
-----0---------------|-----------------|-----------------|-----------------|
--0------------------|--2--------------|--0--------------|--0--------------|


  E  E  E  E  E   E     E  E  E  E  Q       E  E  E  E  Q     
---------------------|-------------------|-------------------|
-----------3--5s--7--|--5-----------7----|--8----------------|
--------2------------|-------------------|--------------7----|
--4--5---------------|--------5----------|--------5----------|
---------------------|-----2-----2-------|-----5-----5-------|
---------------------|--2----------------|--5----------------|


   E  E  E  E  E  E     H        Q       E  E  E  E  Q       E  E  E  E  E  E   
---------------------|----------------|-------------------|-----------------2--|
--10-----------------|--8--------7----|--5----------------|--3-----------3-----|
---------------------|----------------|--------------4----|-----------0--------|
---------0--------7--|----------------|--------2--4-------|--------4-----------|
------0-----7--9-----|----------------|-----2-------------|-----0--------------|
---0-----------------|--5-------------|--2----------------|--0-----------------|


                                      <                                 
  E  E  H           E  E  H           E  E  H           E  E  H         
-----------------|-----------------|-----------------|-----------------|
--5--------------|-----------------|-----------------|-----------------|
--------2--------|--------2--------|-----------------|-----------------|
-----2-----------|-----2-----------|--------4--------|--------5--------|
--0--------------|--0--------------|-----2-----------|-----2-----------|
-----------------|-----------------|--2--------------|--2--------------|


  E  E  H           E  E  H           E  E  H           E  E  H         
-----------------|-----------------|-----------------|-----------------|
-----------------|-----------------|-----------------|-----------------|
--------2--------|--------2--------|-----------------|-----------------|
-----------------|-----------------|--------4--------|--------5--------|
-----0-----------|-----0-----------|-----2-----------|-----2-----------|
--0--------------|--0--------------|--2--------------|--2--------------|


  E  E  H           E  E  H          
-----------------|-----------------||
-----------------|-----------------||
--------2--------|--------2--------||
-----------------|-----------------||
-----0-----------|-----0-----------||
--0--------------|--0--------------||




Duration Legend
---------------
W - whole
H - half
Q - quarter
E - 8th
S - 16th
T - 32nd
X - 64th
. - note dotted
|-n-|  - n-tuplets


Tablature Legend
----------------
L - tied note
x - dead note
g - grace note
(n) - ghost note
> - accentuded note
NH - natural harmonic
AH - artificial harmonic
TH - tapped harmonic
SH - semi harmonic
PH - pitch harmonic
h - hammer on
p - pull off
b - bend
br - bendRelease
pb - preBend
pbr - preBendRelease
brb - bendReleaseBend
\n/ - tremolo bar dip
\n - tremolo bar dive
-/n - tremolo bar Release up
/n\ - tremolo bar inverted dip
/n - tremolo bar return
-\n - tremolo bar Release down
S - shift slide
s - legato slide
/ -  slide into from below or out of upwards
\ -  slide into from above or out of downwards
~ - vibrato
W - wide vibrato
tr - trill
TP - tremolo picking
T - tapping
S - slap
P - pop
< - fade in
^ - brush up
v - brush down





Comments


Popular Halo tabs & chords
Here I Am 1 Bass Tabs
Incinerator 1 Bass Tabs
Still Here Bass Tabs
Still Here 1 Bass Tabs
Cold Light Of Day Tabs
Escape Tabs
Halo 3 Theme Tabs
Halo Theme 1 Tabs
Perfectly Still Tabs
Rock Anthem For Saving The World Tabs


Song lyrics



↑ Back to top | Tablatures and chords are parodies/interpretations of the original songs. You may use it for private study, scholarship, research or language learning purposes only
© 2014 AZChords.com Contact us | Privacy policy | DMCA | Add/correct tabs | Request tabs | Top 50 tabs