» » »

Halo, Lunatic Ride Tabs (ver.1)

Artists:  A B C D E F G H I J K L M N O P Q R S T U V W X Y Z # 

Lunatic Ride Tabs (ver.1)

Halo Tabs
4/5 (4 votes)
Lunatic Ride lessons Tabs too difficult? Try these video lessons and learn fast
                Ok, this is a great song, with a really simple guitar part.  Just keep the rhythm going.

Rhythm fig. 1.
E |------------------|
B |------------------|
G |------------------|
D |-----0---4---4----|
A |---2---2---2---2--|
E |-0----------------|

Rhythm fig. 2.
E |------------------|
B |------------------|
G |-----2---4---4-5--|
D |---2---2---2------|
A |-0----------------|
E |------------------|

Rhythm fig. 3.
E |------------------|
B |------------------|
G |------------------|
D |-----0---4-----2--|
A |---2---2---2-3----|
E |-0----------------|

Rhythm fig. 4.
E |-0-0-0-0-0-0-0-0-|
B |-0-0-0-0-0-0-1-1-|
G |-0-0-0-0-0-0-0-0-|
D |-2-2-2-2-2-2-2-2-|
A |-2-2-2-2-2-2-3-3-|
E |-0-0-0-0-0-0-x-x-|
Ok, you get the idea with that one.  Last beat or two of the bar is damped in some of it.

Righty.  Lyrics.

I am a lunatic ride.
I am deluded inside.
I like to live in your walls
Where I am nothing at all
So please don’t cry…

Translucent spies in skin (? Havent a clue, sorry.  Im probably being really stupid.)
Lets only angels in
I have a secret to tell
I am an angel as well
So please don’t cry…

And the order.

Rhy. Fig. 1 x4

Rhy Fig. 1 x4

Rhy Fig. 2 x4

Rhy Fig. 3 x4


Rhy fig 4 x4
2 bars Em chord

Rhy fig. 1 x4
Submit corrections

comments powered by Disqus
↑ Back to top | Halo Tabs for Lunatic Ride. Lyrics for acoustic guitar and electric guitar. Tablatures and chords are parodies/interpretations of the original songs. You may use it for private study, scholarship, research or language learning purposes only