>
 >
Halo Theme 1

Halo Theme 1 Guitar Tabs

Halo - Halo Theme 1 chords, tabs, tablatures, lyrics

Guitar lessons | Add/correct | Request | Top 50 tabs Artists:  A B C D E F G H I J K L M N O P Q R S T U V W X Y Z 0-9

Halo Theme 1 Guitar Tabs – Halo

CD, Sheet music, Poster

Do you like Halo Theme 1? Share with your friends now
TabsTabs v2Tabs v3

this tab is as close to perfect as i could get it.


~ - Vibrato
/ - slide up
\ - slide down
h - Hammer on
p - Pull Off
b - Bend

Intro

e|------------------------------------------------------------------|
B|------------------------------------------------------------------|
G|--1/9~----9h11/12/14--11h12\9h11\7h(9)----------------------------|
D|------------------------------------------------------------------|
A|------------------------------------------------------------------|
E|------------------------------------------------------------------|

            Riff 1
e|---------|--------------------------------------------------------|
B|---------|--------------------------------------------------------|
G|---------|--------------------------------------------------------|X2
D|---------|-------9------11-------12------14-----14\12\11----------|
A|---------|-------7-------9-------10------12-----12\10\9-----------|
E|----10\3-|-0-0-0---0-0-0---0-0-0---0-0-0--------------------------|



e|--12----14----15----17---------------------------------------------------|
B|--15b~--17b~--18b~--20b~--22-20-19-17-15-17--17p15\12-------------15-17~-|
G|------------------------------------------------------b14-14p12----------|
D|----------------------------------------------------------------14-------|
A|-------------------------------------------------------------------------|
E|-------------------------------------------------------------------------|


e|-----------------------------------------------9------------------|
B|--12---12-14-15---12-15-14-12\10----10---10--12---12-10-----------|
G|---------------------------------9-----9----------------9---------|
D-------------------------------------------------------------------|
A|------------------------------------------------------------------|
E|------------------------------------------------------------------|

Riff 2
e|--------------------12-----------------12-------------------------|
B|--12---12-14-b15~-------15-14-15-14-12-----15-14-15-14-12---------|
G|------------------------------------------------------------------|
D-------------------------------------------------------------------|
A|------------------------------------------------------------------|
E|------------------------------------------------------------------|


e|--14------17--17-17-17--14------17---12-14-15/17-17~--------------|
B|----15--------------------15--------------------------------------|
G|------16--------------------16------------------------------------|
D-------------------------------------------------------------------|
A|------------------------------------------------------------------|
E|------------------------------------------------------------------|


e|------------------------------------------------------------------|
B|--15--17--19--17-19-20-19-17-19-17-15--14--15--17--24~------------|
G|------------------------------------------------------------------|
D|------------------------------------------------------------------|
A|------------------------------------------------------------------|
E|------------------------------------------------------------------|


e|--21-19-17-15---15-14-15-17-15------------------------------------|
B|------------------------------------------------------------------|
G|------------------------------------------------------------------|
D|------------------------------------------------------------------|
A|------------------------------------------------------------------|
E|------------------------------------------------------------------|


e|----15---15---15---15---15---15---15---15---15-17-18-20-17--------|
B|--18--------18-------18-------18----------------------------------|
G|------17--------17--------17--------17----18----------------------|
D|------------------------------------------------------------------|
A|------------------------------------------------------------------|
E|------------------------------------------------------------------|


e|----17---17---17---17---17---17---17---17---17-15-14-15-14--------|
B|--20--------20-------20---------20--------------------------17----|
G|------19--------19--------19--------19----19----------------------|
D|------------------------------------------------------------------|
A|------------------------------------------------------------------|
E|------------------------------------------------------------------|

Riff 3
e|------------------------------------------------------------------|
B|------------------------------------------------------------------|
G|-----------------------9-9----------------------------------------|X2
D|----9-9-9---12-12-12---7-7----12-12\11\9--------------------------|
A|----7-7-7---10-10-10---x-x----10-10\9 \7--------------------------|
E|--0---------9--9--9----8-8--0-------------------------------------|


e|------------------------------------------------------------------|
B|------------------------------------------------------------------|
G|------------------------------------------------------------------|
D|--------9------11-------12------14-----14\12\11-------------------|
A|--------7-------9-------10------12-----12\10\9--------------------|
E|--0-0-0---0-0-0---0-0-0---0-0-0-----------------------------------|


e|----15---15---15---15---15---15---15---15---15-17-18-20-17--------|
B|--18--------18-------18-------18----------------------------------|
G|------17--------17--------17--------17----18----------------------|
D|------------------------------------------------------------------|
A|------------------------------------------------------------------|
E|------------------------------------------------------------------|


e|----17---17---17---17---17---17---17---17---17-15-14-15-14--------|
B|--20--------20-------20---------20--------------------------17----|
G|------19--------19--------19--------19----19----------------------|
D|------------------------------------------------------------------|
A|------------------------------------------------------------------|
E|------------------------------------------------------------------|


e|------------------------------------------------------------------|
B|------------------------------------------------------------------|
G|--b14|-b14|-b14|-b14|-14p12---------------------------------------|
D|---------------------------14~-16~-17~-19~---19-17-16-17-16-14-14-|
A|------------------------------------------------------------------|
E|------------------------------------------------------------------|


e|------------------------------------------------------------------|
B|--17~--17-17-17-19~-19b-19-17\15-15b--17p15----17~----------------|
G|--------------------------------------------16--------------------|
D|------------------------------------------------------------------|
A|------------------------------------------------------------------|
E|------------------------------------------------------------------|


Riff 2
e|-----------------------------------------------9------------------|
B|--12---12-14-15---12-15-14-12\10----10---10--12---12-10-----------|
G|---------------------------------9-----9----------------9---------|
D-------------------------------------------------------------------|
A|------------------------------------------------------------------|
E|------------------------------------------------------------------|


e|--------------------12-----------------12-------------------------|
B|--12---12-14-b15~-------15-14-15-14-12-----15-14-15-14-12---------|
G|------------------------------------------------------------------|
D-------------------------------------------------------------------|
A|------------------------------------------------------------------|
E|------------------------------------------------------------------|


e|--14------17--17-17-17--14------17---12-14-15/17-17~--------------|
B|----15--------------------15--------------------------------------|
G|------16--------------------16------------------------------------|
D-------------------------------------------------------------------|
A|------------------------------------------------------------------|
E|------------------------------------------------------------------|


e|------------------------------------------------------------------|
B|--15--17--19--17-19-20-19-17-19-17-15--14--15--17--24~------------|
G|------------------------------------------------------------------|
D|------------------------------------------------------------------|
A|------------------------------------------------------------------|
E|------------------------------------------------------------------|


e|--21-19-17-15--15-14-15-17-15-----------------------------------------|
B|-------------------------------b22-22~~-------------------------------|
G|--------------------------------------------------b14-b14-b14-b14-14~-|
D|--------------------------------------------7-7h9~--------------------|
A|--------------------------------------5-5h7---------------------------|
E|----------------------------------------------------------------------|


e|------------------------------------------------------------------|
B|--b15-15p12---b18-18p15---b20-20p17-----b20-20-19-----------------|
G|------------------------------------------------------------------|
D|-----------14----------17----------19-----------------------------|
A|------------------------------------------------------------------|
E|------------------------------------------------------------------|


e|------------------------------------------------------------------|
B|---15------------------------15-----------------------------------|
G|--b14--------14p12--12------b14-----14p12-------------------------|
D|------------------14--14~---------------14-12-14~-----------------|
A|------------------------------------------------------------------|
E|------------------------------------------------------------------|


e|-------------------------------------------------------------------------|
B|-/17~-17-19h20-19-17-17h19-15-12-----------------------------------------|
G|--------------------------------b14-b14-14p12---12b14--14p13hb14-14p12---|
D|----------------------------------------------14---------------------14~-|
A|-------------------------------------------------------------------------|
E|-------------------------------------------------------------------------|


e|------------------------------------------------------------------|
B|--15h17-17-17bbb~--b17\17p15----17p15---15h17---------------------|
G|-----------------------------16-------16--------------------------|
D|------------------------------------------------------------------|
A|------------------------------------------------------------------|
E|------------------------------------------------------------------|

e|-------------------------------------------------------------------------|
B|-----------15---------15-------------------------------------------------|
G|------14h16------14h16--14h16p14h16p14h16--------------------------------|
D|-14h17------14h17-------------------------14h17p14h17p14h17--------------|
A|-------------------------------------------------------------14~~--------|
E|-------------------------------------------------------------------------|

e|-------------------------------------------------------------------------|
B|-------------------------------------------------------------------------|
G|-------------------------------------------------------------------------|
D|-------------------------------------------------------------------------|
A|-------------------------------------------------------------------------|
E|--7/10/12/15/17-14~--12/15\14-12-14\10~----------------------------------|

i'm pretty sure thats it.





Comments


Popular Halo tabs & chords
Cold Light Of Day Bass Tabs
Cold Light Of Day 1 Bass Tabs
Incinerator 1 Bass Tabs
Still Here Bass Tabs
Escape Chords
Flatlined At 323 Am Tabs
Halo Theme 2 Tabs
Lunatic Ride Tabs
Never Forgotten Tabs
Siege Of Madrigal 1 Tabs


Song lyrics



↑ Back to top | Tablatures and chords are parodies/interpretations of the original songs. You may use it for private study, scholarship, research or language learning purposes only
© 2014 AZChords.com Contact us | Privacy policy | DMCA | Add/correct tabs | Request tabs | Top 50 tabs