» » »

Cold Light Of Day Tabs (ver.1)

Artists:  A B C D E F G H I J K L M N O P Q R S T U V W X Y Z # 

Cold Light Of Day Tabs (ver.1)

Halo
Rating:
0/5 (0 votes)

Hard to play? Try these video lessons and learn fast.
                Chords supplied by Steven Harrington.  I thought it was a Dm.  Its not.

All the rest is my own work.

Ok, like Steven’s post on OGA says, its Am, F, E, Am all the way through the song.  That’s basically it, but there’s a couple of lead lines he didn’t include, so Im going into a bit more detail here.

Intro:

In the Cold Light of Day the Colours etc…
Then muted strings and distorted chord sequence, going into verse

Verse:
Clean chords something like this, but Im not sure.

E |---------0---------------1-------
B |-----1-----1---1-----1-----1---1-
G |---2---2-----2-----2---2-----2---
D |-2---------------3---------------
A |---------------------------------
E |---------------------------------

E |---------0---------------0-------
B |-----0-----0---0-----1-----1---1-
G |---1---1-----1-----2---2-----2---
D |-2---------------2---------------
A |---------------------------------
E |---------------------------------

I think, with this little thingy over the top.

E |--12----------------13—12--10---
B |------10--12br--10--------------
G |--------------------------------


And the fill over the distorted chords in the chorus is something like this.  Scrub at it as fast as you can, basically.



   1     2     3     4     1     2     3    4
E |----------------------------------------------
B |-10~~~~~~~~~~~~~~~12~~~~9~~~~~~~~~~~10~~~12~~~
G |----------------------------------------------

E |------------10~~~~~~~~~~----------------------
B |-10~~~~~~~~~------------12~~~~~~~~~~13~~~12~~~
G |----------------------------------------------

I think.  And that’s about it.
            
Hard to play? Try these video lessons and learn fast. | Correct




comments powered by Disqus
↑ Back to top | Tablatures and chords are parodies/interpretations of the original songs. You may use it for private study, scholarship, research or language learning purposes only