>
 >
Possession Obsession

Possession Obsession Bass Tabs

Hall And Oates - Possession Obsession chords, tabs, tablatures, lyrics

Guitar lessons | Add/correct | Request | Top 50 tabs Artists:  A B C D E F G H I J K L M N O P Q R S T U V W X Y Z 0-9

Possession Obsession Bass Tabs – Hall And Oates

CD, Sheet music, Poster

Do you like Possession Obsession? Share with your friends now
Bass Tabs
Hall & Oates
Bass Tab


Intro [00:00-00:25]

|--------------------------------------------|
|--------------------------------------------|
|--------------------------------------------|
|-3----3-3---3----3-3---1----1-1---1----1-1--|

|---------------------------------------------------|
|---------------------------------------------------|
|-6----6-6---6----6-6-8--5----5-5---5-3--------5----|
|---------------------------------------5--3-5------|

|---------------------------------------------------|
|---------------------------------------------------|
|-3----3-3---3----3-3-------------------------------|
|---------------------3-3--1----1-1---1--1----1-2---|

Verse 1 [00:25-00:57]

|-------------------------------------------------|
|-------------------------------------------------|
|---------------------5--6----6-6---6----6---6----|
|-3----3-3---3----3-3----------------------6------|

|--------------------------------------------------|
|--------------------------------------------------|
|-5----5-5---5----5--5--6----6-6---6-5--5--6--8----|
|--------------------------------6-----------------|

|-------------------------------------------------|
|-------------------------------------------------|
|---------------------5--6----6-6---6----6---6----|
|-3----3-3---3----3-3----------------------6------|

|------------------------------------------------|
|------------------------------------------------|
|-5----5-5---5-3----5-3-6----6---6-5-------------|
|----------------5-------------6-----1--1---2----|

Chorus 1 [00:58-01:19]

|------------------------------------------------|
|------------------------------------------------|
|-6----6-6---------------------------------------|
|------------1----1-1-2--3----3-3---3----1--2----|

|---------------------------------------------------|
|---------------------------------------------------|
|-6----6-6--------------------------3-5--5---3-5----|
|------------1----1-1-1--3----3-5-6-----------------|

|----------------------------|
|----------------------------|
|-6----6-6-------------------|
|------------1-1------1-2----|

Verse 2 [01:19-01:52]

|-------------------------------------------------|
|-------------------------------------------------|
|---------------------5--6----6-6---6----6-6-8----|
|-3----3-3---3----3-3-----------------------------|

|-----------------------------------------------------|
|-----------------------------------------------------|
|-5----5-5---5--5---5------6----6---6-5---------------|
|-----------------5---5-3---------6-----1--1--1--2----|

|-------------------------------------------------|
|-------------------------------------------------|
|---------------------5--6----6-6---6----6---6----|
|-3----3-3---3----3-3----------------------6------|

|--------------------------------------------------|
|--------------------------------------------------|
|-5----5-5---5----5-5---6----6---6-----------------|
|------------------------------6---6-1--1--1--2----|

Chorus 2 [01:53-02:25]

|------------------------------------------------|
|------------------------------------------------|
|-6----6-6---------------------------------------|
|------------1----1-1-2--3----3-3---3----1--2----|

|------------------------------------------------|
|------------------------------------------------|
|-6----6-6-------------------------3-5--5-3-5----|
|------------1----1-1---3----3-5-6---------------|

|--------------------------------------------------|
|--------------------------------------------------|
|-6----6-6---------------------------3-5--5--8\----|
|------------1-1---1-0-1--3----3-5-6---------------|

|------------------------------------------------|
|------------3----3-3----------------------------|
|-6----6-6------------3-3------------------------|
|-------------------------3----3-3---3----3-3----|

Break [02:26-02:42]

|---------------------------------------------------|
|---------------------------------------------------|
|-3----3-3---3----3---3--5----5-5---5--------3-5----|
|-------------------3------------------2-3-5--------|

|------------------------------------------------|
|------------------------------------------------|
|-3----3-3---3--3-5-3----5----5-5-------5--------|
|---------------------3-----------5-3-5---5-5----|

Chorus 3 and Outro [02:43-04:07]

|------------------------------------------------|
|------------------------------------------------|
|-6----6-6---------------------------------------|
|------------1----1-1-2-2-3----3-3---3----1-1----|

|--------------------------------------------|
|--------------------------------------------|
|-6----6---6--------3----3-3---5----5-x-6----|
|--------6---6-------------------------------|

|---------------------------------------------------|
|---------------------------------------------------|
|-3----3-3------------------3----3-3---5----5--5----|
|----------3-3-1--1--1-x-1--------------------------|

|--------------------------------------------------|
|--------------------------------------------------|
|-3----3-3-----------------3----3-3---5----5--5----|
|----------3--1--1--1h3p1--------------------------|

|---------------------------------------------------|
|--------------------5---5--------------------------|
|-3----3---3--3---3----5----3----3-3---5----5--5----|
|--------3------3-----------------------------------|

|-------------------------|
|-------------------------|
|-3----3-3----------------|
|----------3-3-1--1--1----| & fade





Comments


Popular Hall And Oates tabs & chords
Your Imagination Bass Tabs
Rich Girl Chords
Sarah Smile Intro 1 Tabs
Did It In A Minute Ukulele
Fall In Philadelphia Ukulele
Hard To Be In Love With You Ukulele
I Cant Go For Thatno Can Do Ukulele
Private Eyes Ukulele
Rich Girl Ukulele
Wait For Me Ukulele


Song lyrics



↑ Back to top | Tablatures and chords are parodies/interpretations of the original songs. You may use it for private study, scholarship, research or language learning purposes only
© 2014 AZChords.com Contact us | Privacy policy | DMCA | Add/correct tabs | Request tabs | Top 50 tabs