» » »

Hall And Oates, I Cant Go For That No Can Do Chords (ver.2)

Artists:  A B C D E F G H I J K L M N O P Q R S T U V W X Y Z # 

I Cant Go For That No Can Do Chords (ver.2)

Hall And Oates Tabs
 Rating:
4/5 (5 votes)
I Cant Go For That No Can Do lessons Tabs too difficult? Try these video lessons and learn fast
                -------------------------------------------------------------------------------
                             I Can't Go For That (No Can Do) - Hall and Oates
-------------------------------------------------------------------------------

Tuning:Standard (EADGBe)
Key: Cm&C(chorus)

Intro bass riff:(repeat through intro)
G|--------------------|-------------------||                                  
D|*--------1---1---3--|--------1---1-----*||                                  
A|*------3---3--------|------3---3-------*||                                  
E|-1--1---------------|1--1---------------||                                   

Intro Electric Piano: (Up sweep Cm and hold) (repeat)
e|-3-----||
B|--4----||
G|---5--*||
D|----5-*||
A|-------||
E|-------||

Intro Electric Guitar (Clean):(repeat through intro)
e|--------------||--------------|--------------|---------------||
B|--------------||--------------|--------------|---------------||
G|--------------||*-------------|--------------|-3------------*||
D|------1-1-1-1-||*3----1-1-1-1-|-5----1-1-1-1-|------1-1-1-1-*||
A|--------------||--------------|--------------|---------------||
E|--------------||--------------|--------------|---------------||

Intro: Cm7  F

Verse:
Cm7                        F   
Easy, ready, willing, overtime,
Cm7
Where does it stop,

where do you dare me
    F       G
to draw the line.
Cm7
You've got the body,
                        F
now you want my soul,
Cm7
Don't even think about it,
            F    G
say no go. (Yeah)


Chorus:
C  Cmaj7        C7
I-- I 'll do anything
                 Fmaj7
that you want me to do,
    C  Cmaj7          C7
And I'll do almost anything,
                 Fmaj7
that you want me too, ooh,

    Cm7 (Guitar Intro riff)F
But I can't go for that, (No can do)
    Cm7                   F
No, I can't go for that, (No can do)
    Cm7                   F
Oh, I can't go for that, (No can do)


Verse

Chorus

Sax Solo (Verse Chords)

Chorus

Sax Solo (half verse length) (Verse Chords)


Outro:
    Cm7 (Guitar Intro riff)F
But I can't go for that, (No can do)
    Cm7                   F
No, I can't go for that, (No can do)
    Cm7                   F
Oh, I can't go for that, (No can do) (repeat) fades....



************************************

| /   slide up
| \   slide down
| h   hammer-on
| p   pull-off
| ~   vibrato
| +   harmonic
| x   Mute note
| b   Bend
| pb  Pre-bend
| br  Bend release
| pbr Pre-bend release
| brb Bend release bend

************************************
            
Submit corrections

comments powered by Disqus
↑ Back to top | Hall And Oates Chords for I Cant Go For That No Can Do. Lyrics for acoustic guitar and electric guitar. Tablatures and chords are parodies/interpretations of the original songs. You may use it for private study, scholarship, research or language learning purposes only